» » »

Farin Urlaub, Ok Bass tabs (ver.1)

Artists:  A B C D E F G H I J K L M N O P Q R S T U V W X Y Z # 

Ok Bass tabs (ver.1)

Farin Urlaub Tabs
Rating:
0/5 (0 votes)
Ok lessons Tabs too difficult? Try these video lessons and learn fast
                Farin Urlaub - OK 



So, mein erster Versuch, ein Lied zu tabben. Nun ich hab auch keine Ahnung, 
ob das so stimmt, aber es könnte jedenfalls sein! ;-)
Mein Hauptziel ist es eigentlich, dass jemand meinen kläglichen Versuch hier sieht und
daraufhin eine Berichtigung hier reinstellt! ;-)
Die Strophen und das Intro mögen so stimmen, aber bei den anderen Teilen bin ich mir unsicher. 
Wie das Gitarrensolo begleitet wird, weiss ich nicht.


Intro (Bass setzt nach 10 sec. ein)
G----------------------------------------------------
D---------------------------------------------------- 1x
A-------3333---------2222--------333-----------------
E-00000--------33333-------00000-------3-------------


Strophe
G----------------------------------------------------
D---------------------------------------------------- 8x
A-------3333---------2222---------------------------- 
E-00000--------33333---------------------------------


Hasse-Dich-Teil, ruhig
G------44--------------------------------------------
D-2222---------77-------55--------------------------- 4x
A---------5555-----3333------------------------------
E----------------------------------------------------
  
  
Hasse-Dich-Teil, agressiv  
G----------------------------------------------------
D-----5---------------------------------------------- 2x 
A-------333-555--------------------------------------
E-00-------------------------------------------------


Zwischenstrophe (manchmal wünsch ich mir, ich wäre tot)
G----------------------------------------------------
D---------------------------------------------------- 3x
A--------------3-------------------------------------
E-0000-5555-111--------------------------------------

(aber ich werds überleben)
G----------------------------------------------------
D---------------4-5---------------------------------- 1x
A------------55-----33\22---5------------------------
E-5555-44-33-----------------------------------------




Struktur:
Intro
Strophe
Hasse-Dich-Teil, ruhig
Hasse-Dich-Teil, agressiv
Intro
Strophe (mit etwas anderem Rythmus)
Hasse-Dich-Teil, ruhig
Hasse-Dich-Teil, agressiv
Zwischenstrophe
Solo



So...jetzt hab ich das Lied so oft gehört...es hängt mir aus der Nase raus! 
Aber eigentlich ist es voll cool!
            
Submit corrections

comments powered by Disqus
↑ Back to top | Farin Urlaub Bass for Ok. Lyrics for acoustic guitar and electric guitar. Tablatures and chords are parodies/interpretations of the original songs. You may use it for private study, scholarship, research or language learning purposes only