>
 >
Ok

Ok Guitar Tabs

Farin Urlaub - Ok chords, tabs, tablatures, lyrics

Guitar lessons | Add/correct | Request | Top 50 tabs Artists:  A B C D E F G H I J K L M N O P Q R S T U V W X Y Z 0-9

Ok Guitar Tabs – Farin Urlaub

CD, Sheet music, Poster

Do you like Ok? Share with your friends now
Bass TabsChordsTabsTabs v2Tabs v3



Intro (with heavy distortion) 			fill 1				Chord 1

e---------------------------				---------------------			------------
H--------------------------				---------------------			------------
G--------------------------				---------------------			------------
D---2-----10---5----9---	(every chord		----9-10--9--7----	(fast)		------5-----
A---2----10----5----9---	5 times)			---------------------			------5-----
E---0-----8-----3----7---				---------------------			------3-----

Bass:

E------00000----88888----33333----77777


Guitar 1: Intro

Guitar 2:
part 1
---9-9-11-11-12-12-11-11-9-9-11-11-12-12-11-11---------11-11-12-12-11-11----------11-11-12-12-11-11----------------------------------------------------------------------12-12--------------------------12-12-------------------------------------


fill 2: bass:
									Chord 2
E-----------7-7-7-8-7-5----------						-----------
									-----------
									-----------											-----9-----
									-----9-----
									-----7-----		
part 2	(clean)						Ending:
-------5-5-5-5-5-4-4-4-4-5-4-2-2---------------------------	--5-5-5-7-5-4-4-2-0-2-----


heavy part (heavy distortion)
------------9-9--9-9---7-7-7--7---5-5--5-5--5-5---------------
------------9-9--9-9---7-7-7--7---5-5--5-5--5-5---------------
------------7-7--7-7---5-5-5--5---3-3--3-3--3-3---------------
------0-0-----------------------------------------------------------




Intro + Guitar 2


Part 3
e----------19------------------19--------------
b-------------20----19-20-------20-----------


bass:

part 4
E-------0-0-0---8-8-8-8---3-3-3---7-7-7-7------


Part 5
------------------------------------------------------
------------------------------------------------------
------------------------------------------------------
----2-2-2-2---7-7-7-----5-5-5----7-7-7----------
----2-2-2-2---7-7-7-----5-5-5----7-7-7----------
----0-0-0-0---5-5-5-----3-3-3----5-5-5----------


part6
--------------------------------------------------------------
--------------------------------------------------------------
--------------------------------------------------------------
----10-10-10-10-10------5-5-5------12-12-12-12------
----10-10-10-10-10------5-5-5------12-12-12-12------
----8---8---8---8---8-----3-3-3-------10-10-10-10------


part 7
------------------------------------------
------------------------------------------
------------------------------------------
-----10-10-10-10---9-9-9-9---7------
-----10-10-10-10---9-9-9-9---7------
-----8---8---8---8---7-7-7-7---5------


Solo:
Guitar 1:

part 8
---2---14--12--14--14--12-12-12-12-12-----10-10-10-10-10-10-10-10-10-10----5--4---2-------
---2---14--12--14--14--12-12-12-12-12-----10-10-10-10-10-10-10-10-10-10----5--4---2-------
---0---12--10--12--12--10-10-10-10-10------8---8---8--8--8--8---8---8--8---8----3--2---0-------



Solo Guitar 2:

It’s an improvisation of Farin Urlaub in this part of the song and goes very fast so you must be good in Guitar before you can play it!!


Its something awesome like that:
It starts so:
e-------------------------------
B------------------------------
G------11~~~~~~~~9-11-tr.-----------------------


e------12-14-15-17--19-20-tr.---the solo is the whole time in this part of the guitar so you must improve. It’s difficult to explain or to write down the whole solo.


End:

Part 9	Wah-Wah or something else							fill 2
-----------0-------0--------------0------0--------------0-----0---------4-------2--------0----------		-------------------
-------5--------5-------5------4------4------4------0------0------0------0-------0--------0--------		-------------------
----7--------7-------7------5------5------5------3-------3-----3------------3-------3---------------		-------------------


Part 10
----------4-----4-----------------4-------4-----2--------4---------
-------0------0------0--------0-------0------------------2-------
-----------------------------------------------------------2-------
----3------3------3-------1-------1---------------------0-------


Order:

1. Intro 2x (second time with fill 1 at the end)
2. Drums start at third time
3. After 4th time Chord 1
4. Farin begins to sing
5. Bass begins (4x)
6. Guitar 1(Intro) + Guitar 2 (part 1) (4x)
7. at the end Chord 2 and bass fill
8. 3 times part 2 4th time ending
9. heavy part (2x)
10. intro (2x,Guitar 1) + part 3 (Guitar 2)
11. part 4 (4x, bass)
12. Guitar 1(Intro) + Guitar 2 (part 1) (4x)
13. 3 times part 2 4th time ending
14. 3 times part 5
15. 1x part 6
16. 1x part 7
17. part 8 4 times with Solo of Farin
18. part 9 (2 times) Second time starts Guitar 2 with fill 2
19. part 10 (1 time)


lyrics:

Absolut nichts ist in Ordnung, absolut nichts ist OK, verkneif dir jegliches Mitleid und spar dir jedes Klischee
Ja, es geht mir beschissen, ja, es ist wegen dir, doch davon willst du nichts wissen, sonst wärst du sicherlich hier, bei mir.
Ich hasse dich
Ich hasse dich
Ich hasse dich
Absolut nichts ist mir heilig, absolut nichts seht noch fest, ich hätte niemals erwartet, dass du mich einfach verlässt.
Ich hasse meine Gefühle und meine Hilflosigkeit, aber ich bin mir ganz sicher, das geht vorbei mit der Zeit, mit der Zeit.
Am Morgen geht die Sonne auf  und ich hasse dich, die Welt nimmt weiter ihren Lauf und ich hasse dich, Menschen gehen von A nach B und ich hasse dich, im Winter fällt ein bisschen Schnee
Manchmal wünsch ich mir ich wäre tot, keine Gefühle- kein Problem, das klingt nach nem verlockenden Angebot, aber ich werds überleben und mit Glück bleibt nur eine Narbe zurück.





Comments


Popular Farin Urlaub tabs & chords
Ok Bass Tabs
Augenblick Chords
Kein ZurüCk Chords
Ok Chords
Buch Zum Lesen Tabs
Farin Urlaub's "Ok" Tabs
Ok 1 Tabs
Ok 2 Tabs
PhäNomenal Egal 2 Tabs
Unsichtbar Tabs


Song lyrics



↑ Back to top | Tablatures and chords are parodies/interpretations of the original songs. You may use it for private study, scholarship, research or language learning purposes only
© 2014 AZChords.com Contact us | Privacy policy | DMCA | Add/correct tabs | Request tabs | Top 50 tabs