» » »

Family Force 5, Lose Urself Bass tabs (ver.2)

Artists:  A B C D E F G H I J K L M N O P Q R S T U V W X Y Z # 

Lose Urself Bass tabs (ver.2)

Family Force 5 Tabs
 Rating:
3.7/5 (6 votes)
Lose Urself lessons Tabs too difficult? Try these video lessons and learn fast
1
                Lose Urself
performed by
Family Force 5

Intro-Verse
G|--------------------------------|x9
D|-----2/3-----2/3----------------|
A|--------------------------------|
D|-3-3-----3-3------6-6--6-1-1--1-|

G|-----------------|
D|-----2/3-----2/3-|
A|-----------------|
D|-3-3-----3-3-----|

Note: You have to play that second fret fast,
and then slide up to the third fret. You've 
got to play it just enough to hear it,but 
then pull off quick. It may be tricky to get
it right.

Chorus
G|-------------------------|x2
D|-------------------------|
A|-------------------------|
D|-3----6----1-3----6----1-|

G|---------1-35-1-8-6-5-1-35-|
D|-3-3-3-5-------------------|
A|---------------------------|
D|---------------------------|

Verse
G|--------------------------------|x5
D|-----2/3-----2/3----------------|
A|--------------------------------|
D|-3-3-----3-3------6-6--6-1-1--1-|

G|-----------------|
D|-----2/3-----2/3-|
A|-----------------|
D|-3-3-----3-3-----|


Chorus
G|-------------------------|x2
D|-------------------------|
A|-------------------------|
D|-3----6----1-3----6----1-|

G|---------1-35-1-8-6-5-1-35-|x4
D|-3-3-3-5-------------------|
A|---------------------------|
D|---------------------------|

Bridge
G|--------------------|x4
D|--------------------|
A|--------------------|
D|-33333333-6666-1111-|

G|--------------------------------|x2
D|-----2/3-----2/3----------------|
A|--------------------------------|
D|-3-3-----3-3------6-6--6-1-1--1-|


Chorus
G|-------------------------|x2
D|-------------------------|
A|-------------------------|
D|-3----6----1-3----6----1-|

G|---------1-35-1-8-6-5-1-35-|x4
D|-3-3-3-5-------------------|
A|---------------------------|
D|---------------------------|

G|----------------------------------|
D|-----2/3-----2/3------------------|
A|----------------------------------|
D|-3-3-----3-3------6-6--6-1-1--1-3-|


I'm pretty sure that's how the song is. The bridge
 may be off, but it sounds fine to me. I love the 
bass parts of this song, namely the verse and the
second part of the chorus. Have fun and please rate
well.
            
Submit corrections

comments powered by Disqus
↑ Back to top | Family Force 5 Bass for Lose Urself. Lyrics for acoustic guitar and electric guitar. 1 Tablatures and chords are parodies/interpretations of the original songs. You may use it for private study, scholarship, research or language learning purposes only