» » »

Family Force 5, Lose Urself Bass tabs (ver.1)

Artists:  A B C D E F G H I J K L M N O P Q R S T U V W X Y Z # 

Lose Urself Bass tabs (ver.1)

Family Force 5 Tabs
Rating:
4/5 (6 votes)
Lose Urself lessons Tabs too difficult? Try these video lessons and learn fast
                Tuning: Drop D (DAdG)

| h  hammer-on

Groovy song. ;) These three riffs make up the whole song. Here's you tour guide for the ride

[Intro Riff] Quick fingers on this one.
                              /Ones\
G|---------------------------------------|
d|-------1h3------1h3--------------------|
A|------3--------3-----------------------|
D|--3-3------3-3------6--6-6--11--11--1--|

[Chorus]                       /Ones\
G|-----------------------------------|
d|-----------------------------------|
A|-----------------------------------|
D|--3--333--3--333--6--666--61--111--|

[Post-Chorus]                  /Ones\
G|-----------------------------------|
d|-----------------------------------|
A|-----------------------------------|
D|--3--333--3--333--8--888--81--111--|

God bless. :)

Intro        - Intro Riff
Verse 1      /
Chorus       - Chorus Riff
Post-Chorus  - Post-Chorus Riff
Verse 2      - Intro Riff
Chorus       - Chorus Riff
Post-Chorus  - Post-Chorus Riff
Bridge       - Chorus Riff
Chorus       / Chorus Riff
Post-Chorus  - Post-Chorus Riff
Outro        - Intro Riff
            

comments powered by Disqus
↑ Back to top | Family Force 5 Bass for Lose Urself. Lyrics for acoustic guitar and electric guitar. Tablatures and chords are parodies/interpretations of the original songs. You may use it for private study, scholarship, research or language learning purposes only