» » »

Family Force 5, Lose Urself Tabs (ver.1)

Artists:  A B C D E F G H I J K L M N O P Q R S T U V W X Y Z # 

Lose Urself Tabs (ver.1)

Family Force 5 Tabs
Rating:
4/5 (3 votes)
Lose Urself lessons Tabs too difficult? Try these video lessons and learn fast
                Tuning: Drop D (DAdGBE)

| \  slide down
| /  slide up
| U  up-stroke
| ~  vibrato

The song is best categorized as "phunque." Here's how to jam out to it. (No guitar for 
first verse.)

[Chorus] The slides between the 3s and the 6s aren't standard slides; you hang on the 3s 
a second before quickly sliding up to the 6s and then killing the sound by lightly go 
of the fret. Listen to it. ;)
E|--------------------------------------------------------|
B|--------------------------------------------------------|
G|--------------------------------------------------------|
d|--15\3-3---3/6---1-3---3/6---1-3---3/6---1-3---3/6---1--|
A|--15\3-3---3/6---1-3---3/6---1-3---3/6---1-3---3/6---1--|
D|--15\3-3---3/6---1-3---3/6---1-3---3/6---1-3---3/6---1--|


[Guitar Riff]
E|------------------------------------|
B|------------------------------------|
G|------------------------------------|
d|------------------------------------|
A|--8\-----------1-3---6-6-4-3---1-3--|
D|-----3-3-3-5-6-----6---------6------|


[Verse] This part only comes in on the second verse
E|----------------------|
B|----------------------|
G|---10--10--10-10--10--| x As many as you need. ;)
d|---10--10--10-10--10--|
A|----------------------|
D|----------------------|
     U   U   U  U   U


Go back into the chorus, then after that play the guitar riff like four times. Pause.. 
and then go into the bridge!


[Bridge] All of this is tremolo picked except for the last note
E|------------------------------------------------|
B|------------------------------------------------|
G|-----5--6--5--3--1--0--1-----5--6--5--8--10--5--|
d|--3-----------------------3---------------------|
A|------------------------------------------------|
D|------------------------------------------------|

E|--------------------------------------------------------|
B|--------------------------------------------------------|
G|-----5--6--5--3--1--0--1-----5--6--5--8--10--5--3--/5~--|
d|--7-----------------------3-----------------------------|
A|--------------------------------------------------------|
D|--------------------------------------------------------|

This goes back into the chorus, then the guitar riff four more times and then..

Done! God bless. :)
            
Submit corrections

comments powered by Disqus
↑ Back to top | Family Force 5 Tabs for Lose Urself. Lyrics for acoustic guitar and electric guitar. Tablatures and chords are parodies/interpretations of the original songs. You may use it for private study, scholarship, research or language learning purposes only