» » »

Family Force 5, The First Time Tabs (ver.1)

Artists:  A B C D E F G H I J K L M N O P Q R S T U V W X Y Z # 

The First Time Tabs (ver.1)

Family Force 5 Tabs
Rating:
4/5 (2 votes)
The First Time lessons Tabs too difficult? Try these video lessons and learn fast
                ok this is like my favorite song its the only hard song that you can play for a girl and 
them still be in love with you!

r= 10 R=12

this is the part at the beginning(00:06) with overdrive
e|------------------------------------------------------------------|
B|------------------------------------------------------------------|
G|------------------------------------------------------------------|
D|0000000000000000555555555555555599999999999999--5555555555555555--|
A|0000000000000000555555555555555599999999999999--5555555555555555--|
D|0000000000000000555555555555555599999999999999Rr5555555555555555--|
pm..............................................  ................
Verse:(00:19)
guitar 2 comes in first
e|----------------------------------------------------------------|
B|----------------------------------------------------------------|
G|----------------------------------------------------------------|  repeat
D|0000000000000000555555555555555599999999999999--5555555555555555|   2X
A|0000000000000000555555555555555599999999999999--5555555555555555|
D|0000000000000000555555555555555599999999999999Rr5555555555555555|
pm..............................................  ................

guitar 1 comes in at the second time that is repeated at the very beginning (00:31) "A 
note of you..."
e|-----2-----------2----------2----------2---|
B|--3----3-----3-----3-----3----3-----3----3-|
G|-------------------------------------------|  repeated as needed because
D|0---------0-----------0----------0---------|   im just to lazy to find it!
A|-------------------------------------------|
D|-------------------------------------------|
For the prechorus just play the verse once more

chorus guitars 1 and 2
e|----------------------------------------------------------------|
B|----------------------------------------------------------------|
G|----------------------------------------------------------------|  repeat
D|0000000000000000555555555555555599999999999999--5555555555555555|  4X
A|0000000000000000555555555555555599999999999999--5555555555555555|
D|0000000000000000555555555555555599999999999999Rr5555555555555555|

next is the verse 2 its the exact same as verse 1 except guitar one plays for the whole part
then chorus again
the bridge
guitar 2 stays the same as the verse but guitar 1:
e|-----2-----------2----------2----------2-----|
B|--3----3-----3-----3-----3----3-----3----3---|
G|------------2----------------------2---------|  repeated as needed
D|0---------0-----------0----------0-----------|
A|---------------------------------------------|
D|---------------------------------------------|


then you just play the chorus until the end! simple song and a great meaning and such 
we love ff5!
            

comments powered by Disqus
↑ Back to top | Family Force 5 Tabs for The First Time. Lyrics for acoustic guitar and electric guitar. Tablatures and chords are parodies/interpretations of the original songs. You may use it for private study, scholarship, research or language learning purposes only