» » »

Family Force 5, Lose Urself Bass tabs (ver.3)

Artists:  A B C D E F G H I J K L M N O P Q R S T U V W X Y Z # 

Lose Urself Bass tabs (ver.3)

Family Force 5 Tabs
Rating:
5/5 (1 vote)
Lose Urself lessons Tabs too difficult? Try these video lessons and learn fast
                -------------------------------------------------------------------------------
	Lose Urself - Family Force 5
-------------------------------------------------------------------------------
--
I saw a video of this song live, and he slaps the whole thing which 
gives it an AWESOME sound!
--

Tuning: Drop D

Verse
G|------------------------------|   |-----------------|
D|-----2h3-----2h3--------------|   |-----2/3-----2/3-|
A|------------------------------|   |-----------------|
D|-3-3x----3-3x----6-x66--1-x11-|x9 |-3-3x----3-3x----|
   S  SP   S  SP   S  SS  S  SS       S  SP   S  SP

Chorus                                              Played During Cool Guitar Thing
G|------------------------------------------------|   |------------------------|
D|------------------------------------------------|   |------------------------|
A|------------------------------------------------|   |------------------------|
D|-3--3--3--3--6--6--6--6--3--3--3--3--6--6--6--6-|x2 |-3--3--3--3--6--6--6--6-|
   S  S  S  S  S  S  S  S  S  S  S  S  S  S  S  S       S  S  S  S  S  S  S  S
 
Verse
G|------------------------------|   |-----------------|
D|-----2h3-----2h3--------------|   |-----2/3-----2/3-|
A|------------------------------|   |-----------------|
D|-3-3x----3-3x----6-x66--1-x11-|x5 |-3-3x----3-3x----|
   S  SP   S  SP   S  SS  S  SS       S  SP   S  SP

Chorus
G|------------------------------------------------|   
D|------------------------------------------------|   
A|------------------------------------------------|   
D|-3--3--3--3--6--6--6--6--3--3--3--3--6--6--6--6-|x4 
   S  S  S  S  S  S  S  S  S  S  S  S  S  S  S  S     

Bridge
G|--------------------------------------------------------|
D|--------------------------------------------------------|
A|--------------------------------------------------------|
D|-3--33--3--33--6--66--1--11--3--33--3--33--6--66--1--11-|x2
   S  SS  S  SS  S  SS  S  SS  S  SS  S  SS  S  SS  S  SS

G|------------------------------|   
D|-----2h3-----2h3--------------|   
A|------------------------------|   
D|-3-3x----3-3x----6-x66--1-x11-|x2 
   S  SP   S  SP   S  SS  S  SS     

Chorus
G|------------------------------------------------|   
D|------------------------------------------------|   
A|------------------------------------------------|   
D|-3--3--3--3--6--6--6--6--3--3--3--3--6--6--6--6-|x4 
   S  S  S  S  S  S  S  S  S  S  S  S  S  S  S  S     

Outro
G|------------------------------|   
D|-----2h3-----2h3--------------|   
A|------------------------------|   
D|-3-3x----3-3x----6-x66--1-x11-|x2 
   S  SP   S  SP   S  SS  S  SS     


| /  slide up
| \  slide down
| h  hammer-on
| p  pull-off
| ~  let note ring
| +  harmonic
| x  Mute note
===============================================================================
            

comments powered by Disqus
↑ Back to top | Family Force 5 Bass for Lose Urself. Lyrics for acoustic guitar and electric guitar. Tablatures and chords are parodies/interpretations of the original songs. You may use it for private study, scholarship, research or language learning purposes only