>
 >
Three Suns And One Star 1

Three Suns And One Star 1 Guitar Tabs

Down - Three Suns And One Star 1 chords, tabs, tablatures, lyrics

Guitar lessons | Add/correct | Request | Top 50 tabs Artists:  A B C D E F G H I J K L M N O P Q R S T U V W X Y Z 0-9

Three Suns And One Star 1 Guitar Tabs – Down

CD, Sheet music, Poster

Do you like Three Suns And One Star 1? Share with your friends now
TabsTabs v2
Three Suns and One Star
Down

Tuning: 1.5 Steps Down

Note: These are all of the riffs arranged in order, but not repeated. Listen to the 
track to figure out the arrangement. It is probably far from perfect, so




|---------------------------------------------|
|---------------------------------------------|
|---------------------------------------------|
|---------------------------------------------|
|-2--2-------2--2-------2--2-------2--2-------|
|-0--0-0-0-0-0--0-0-0-0-0--0-0-0-0-0--0-0-0-0-|
       . . .      . . .      . . .      . . .

|-----------------------------------------------------------------------------------------|
|-----------------------------------------------------------------------------------------|
|-----------------------------------------------------------------------------------------|
|-----------------------------------------------------------------------------------------|
|-7--7-------8--8------13-13------12-12-------7--7-------8--8------12-12------11-11-------|
|-0--0-0-0-0-0--0-0-0-0-0--0-0-0-0-0--0-0-0-0-0--0-0-0-0-0--0-0-0-0-0--0-0-0-0-0--0-0-0-0-|
       . . .      . . .      . . .      . . .      . . .      . . .      . . .      . . .

|-----------------------------------------------------------------------------------|
|-----------------------------------------------------------------------------------|
|-----------------------------------------------------------------------------------|
|-----------5-------------------7\6----6/7------------------5-----------------------|
|------7---------7--------------5\4----4/5----7----7----5h7---7----7--------7-------|
|-0--0----0----0----0-6--0-5--0------0------0----0----0----------0----0-5h7----6--5-|
     .    .    .    .    .    .      .      .    .    .          .    .

|-----------------------------------------------------------------------------------|
|-----------------------------------------------------------------------------------|
|-----------------------------------------------------------------------------------|
|-9--9-------9--9-------9--9-------9--9-------9--9-------9--9-------9--9------10----|
|-7--7-------7--7-------7--7-------7--7-------7--7-------7--7-------7--7-------8--\-|
|-7--7-0-0-0-7--7-0-0-0-7--7-0-0-0-7--7-0-0-0-7--7-0-0-0-7--7-0-0-0-7--7-0-0-0-8--\-|
       . . .      . . .      . . .      . . .      . . .      . . .      . . .

|-----------------------------------------------------------------------------------|
|-----------------------------------------------------------------------------------|
|-----------------------7----------6--------------------------------6----------5----|
|-2---------/7----------x----------x----------2---------/7----------x----------x----|
|-x----------x----------5----------4----------x----------x----------4----------3----|
|-0---------/5--------------------------------0---------/5--------------------------|


|------------------------------------------------------------------------------|
|------------------------------------------------------------------------------|
|------------------------------------------------------------------------------|
|-9--9-------9--9-------9--9-------9--9-------9--9-------9--9-------9--9-------|
|-7--7-------7--7-------7--7-------7--7-------7--7-------7--7-------7--7-------|
|-7--7-0-0-0-7--7-0-0-0-7--7-0-0-0-7--7-0-0-0-7--7-0-0-0-7--7-0-0-0-7--7-0-0-0-|
       . . .      . . .      . . .      . . .      . . .      . . .      . . .

|----------------------------------------------------------------------|
|----------------------------------------------------------------------|
|----------------------------------------------------------------------|
|-------------------------------------0---------------------0----------|
|---------9--7------------7--5----0h1---0h1p0-----------0h1---0h1p0----|
|-0-0/5-7---------0-0/5-7---------------------3--0----0-------------0--|
                                                      .

|-------------------------------------------------------------------------------------|
|-------------------------------------------------------------------------------------|
|-------------------------------------------------------------------------------------|
|-------------------------------------------------------------------------------------|
|-----------------------5--4--5--4--5--4----------------------------------------------|
|-3--3-3-3-3-3--3-3-3-3-6--5--6--5--6--5--3--3-3-3-3-3--3-3-3-3-3--3-3-3-3-3--3-3-3-3-|


|-------------------------------------------------------------------|
|-------------------------------------------------------------------|
|-------------------------------------------------------------------|
|---------------------------------0----------------------0----------|
|-------9--7----------7--5----0h1---0h1p0------------0h1---0h1p0----|
|-0-/7----------0-/7----------------------3--0----0--------------0--|
                                                  .

|-------------------------------------------------------------------|
|-------------------------------------------------------------------|
|-------------------------------------------------------------------|
|---------------------------------0----------------------0----------|
|-------9--7----------7--5----0h1---0h1p0------------0h1---0h1p0----|
|-0-/7----------0-/7----------------------3--0----0--------------0--|
|                                                 .
            |
|-------------------------------------------------------------------|
|-------------------------------------------------------------------|
|-------------------------------------------------------------------|
|-------7--5----------5--4--------0----------------------0----------|
|-----------------------------0h1---0h1p0------------0h1---0h1p0----|
|-0-/7----------0-/7----------------------3--0----0--------------0--|
                                                  .

|--------------------------------------------------------------|
|--------------------------------------------------------------|
|--------------------------------------------------------------|
|--------------------------------------------------------------|
|------9--7----------7--5---------9--7--9--10b-9--7--7h9p7-5---|
|-0-/7----------0-/7---------0-/7------------------------------|
|                                                              |
|--------------------------------------------------------------|
|--------------------------------------------------------------|
|------------------------------------------4-------------------|
|------7--5----------5--4---------7--5--7-----7--5--5h7p5-4----|
|--------------------------------------------------------------|
|--------------------------------------------------------------|
|                                                              |
|--------------------------------------------------------------|
|--------------------------------------------------------------|
|------------------------------11b-11-9--11b-11-9--9h11p9------|
|---------------------------------------------------------12---|
|--------------------------------------------------------------|
|--------------------------------------------------------------|


|--------------------------------------------------------------------------|
|--------------------------------------------------------------------------|
|--------------------------------------------------------------------------|
|-----------------------8--7--8--7--8--7------------------8--7--8--7--8--7-|
|-5--5-------5--5-------5--4--5--4--5--4--5----5-------5--5--4--5--4--5--4-|
|-3--3-3-3-3-3--3-3-3-3-6--5--6--5--6--5--3--3-3--3--3-3--6--5--6--5--6--5-|
       . . .      . . .                      .    .  .

|--------------------------------------------------------------------------|
|--------------------------------------------------------------------------|
|--------------------------------------------------------------------------|
|---------------------8--7--8--7--8--7-------------------8--7--8--7--8--7--|
|-5----5---5--5--5----5--4--5--4--5--4--5--5-5-----------5--4--5--4--5--4--|
|-3--3-3---3--3--3-3--6--5--6--5--6--5--3--3-3---3333333-6--5--6--5--6--5--|
     .     .  .  . .                             .......

|---------------------------------------------------------------------------------------|
|---------------------------------------------------------------------------------------|
|---------------------------------------------------------------------------------------|
|-9--9-------9--9-------9--9-------9--9-------9--9-------9--9-------9--9-------10-10-10-|
|-7--7-------7--7-------7--7-------7--7-------7--7-------7--7-------7--7--------8--8--8-|
|-7--7-0-0-0-7--7-0-0-0-7--7-0-0-0-7--7-0-0-0-7--7-0-0-0-7--7-0-0-0-7--7-0-0-0--8--8--8-|
       . . .      . . .      . . .      . . .      . . .      . . .      . . .

|-----------------------------------------------------------------------------------|
|-----------------------------------------------------------------------------------|
|-----------------------------------------------------------------------------------|
|-----------5-------------------7\6----6/7------------------5-----------------------|
|------7---------7--------------5\4----4/5----7----7----5h7---7----7--------7-------|
|-0--0----0----0----0-6--0-5--0------0------0----0----0----------0----0-5h7----6--5-|
     .    .    .    .    .    .      .      .    .    .          .    .

|---------------------------------------------------------------------------------------|
|---------------------------------------------------------------------------------------|
|---------------------------------------------------------------------------------------|
|-----------5-------------------7\6----6/7------------------5----------5-------10-10-10-|
|------7---------7--------------5\4----4/5----7----7----5h7---7----5h7---7p5----8--8--8-|
|-0--0----0----0----0-6--0-5--0------0------0----0----0----------0-----------5--8--8--8-|
     .    .    .    .    .    .      .      .    .    .          .

|-----------------------------------------------------------------------------------|
|-----------------------------------------------------------------------------------|
|-----------------------------------------------------------------------------------|
|-----------5-------------------7\6----6/7------------------5----------5------------|
|------7---------7--------------5\4----4/5----7----7----5h7---7----5h7---7p5---8--7-|
|-0--0----0----0----0-6--0-5--0------0------0----0----0----------0-----------5-6--5-|
     .    .    .    .    .    .      .      .    .    .          .

|-------------------------------------------------------------------|
|-------------------------------------------------------------------|
|-------------------------------------------------------------------|
|10-10------10-10------10-10------10-10------10-10------10-10-------|
|-8--8-------8--8-------8--8-------8--8-------8--8-------8--8-------|
|-8--8-0-0-0-8--8-0-0-0-8--8-0-0-0-8--8-0-0-0-8--8-0-0-0-8--8-0-0-0-|
       . . .      . . .      . . .      . . .      . . .      . . .

|---------------------------|
|---------------------------|
|--------------------/12--\-|
|-/5--4-----4----------x----|
|--------7-----7--5--/10--\-|
|---------------------------|





Comments


Popular Down tabs & chords
Ghost Along The Mississippi 1 Tabs
His Majesty The Desert Tabs
Landing On The Mountains Of Meggido Tabs
Lies, I Don't Know What They Say But.. Tabs
Lifer Tabs
Lifer Intro Tabs
New Orleans Is A Dying Whore 1 Tabs
Rehab Tabs
The Man That Follows Hell 1 Tabs
Underneath Everything Tabs


Song lyrics



↑ Back to top | Tablatures and chords are parodies/interpretations of the original songs. You may use it for private study, scholarship, research or language learning purposes only
© 2014 AZChords.com Contact us | Privacy policy | DMCA | Add/correct tabs | Request tabs | Top 50 tabs