» » »

The Path Bass tabs (ver.1)

Artists:  A B C D E F G H I J K L M N O P Q R S T U V W X Y Z # 

The Path Bass tabs (ver.1)

Down
Rating:
0/5 (0 votes)

Hard to play? Try these video lessons and learn fast.
                Down's

Tuning C# Standard (Db,Gb,B,E)

Riff 1:
|--------|--------|--------|--------|
|--rest--|--------|--------|--------|
|--------|--------|--------|--------|
|--------|00000000|00000000|00030303|

Riff 2:
|--------|-------|--------|--------|
|--------|-------|--------|--------|
|--------|-------|--------|--------|
|3--05--0|6--08--|03--05--|06--0131|

Fill 1:
|---| Occurs at 0:46 and 3:05
|---|
|---|
|130|

Riff 3:
|--------|--------|--------|--------|
|--------|--------|--------|--------|
|--------|------5-|--------|--------|
|00000000|000005-5|30--355^|00000000|

|--------|--------|--------|
|--------|--------|--------|
|------5-|--------|--------|
|000005-5|30-00-3-|-3--3---|

Riff 4:
|--------|--------|--------|--------|
|--------|5-------|-------5|--------|
|------75|-----5--|------7-|7-------|
|0-000---|-765--3-|0-000---|--6--5--|

Fill 2:
|--------| Occurs at 1:36
|353-----|
|--------|
|----131-|

Fill 3: Instead of the usual Riff 2 ending, replace with this
|--------| Occurs at 1:43, 2:45, and 3:05
|--------|
|--------|
|6-0-765-|

Riff 5:
|--------|--------|--------|
|--------|--------|--------|
|22233344|45556665|55444333|
|--------|--------|--------|

Riff 6:
|--------|--------|
|--------|--------|
|--------|--------|
|3-------|1-0-----|

Cool Bassy Bit:
|--------|--------|--------|--------|--------|--------|--------|--------|--------|
|--------|2-------|2-------|---2----|--------|---2----|--------|2-2--22-|--2--2--|
|--------|--3535--|--------|3-5--5-3|--------|3-5--5-3|--------|--------|---5--5-|
|0-------|--------|----0---|--------|0-------|--------|0-------|--------|----3--3|

Riff 8:
|--------|-------|--------|--------|
|--------|-------|--------|--------|
|--------|-------|--------|--------|
|3-0-5-0-|6-0-000|3-0-5-0-|6-0-000-|

Order to song:
Riff 1 x 1
Riff 2 x 4
Fill 1 x 1
Riff 2 x 2
Riff 3 x 1
Riff 4 x 4
Fill 2 x 1
Riff 2 (with fill 3 once) x 2
Riff 3 x 1
Riff 4 x 4
Riff 5 x 1
Riff 6 x 1
Riff 2 (with fill 3 once) x 2
Riff 6 x 1
Riff 2 (with fill 3) x 1
Fill 1 x 1
Cool Bassy Bit x 1
Riff 5 x 1
Riff 6 x 1
Riff 8 x 4
Riff 6 x 1
Riff 2 x 1

Lyrics:
Crawling... to the path of the righteous
Crawling... to you again
To you again
Crawling... up the down a mountain
Crawling... then up again
Then up again
Could you ever admit to yourselves
That you must walk in the light
Of the blessed?
Not invited
To cry out loud
I'm a brother
Stone cold truth
Love and suffer
(the) Siamese-cult
Held divided
So U trudge on
Now
Could you ever admit to yourselves
That you must walk in the light
Of the blessed?
Not invited
To cry out loud
I'm a brother
Stone cold true
Love and suffer
(the) Siamese-cult
Held divided
So I trudge on
Eyes wide to reality
Crawling... the the path of the righteous
Crawling... to you again
Eyes wide to reality
Crawling... up then down a mountain
Then up again
Eyes wide tor eality
Crawling... I'm crawling
To you
            
Hard to play? Try these video lessons and learn fast. | Correct




comments powered by Disqus
↑ Back to top | Tablatures and chords are parodies/interpretations of the original songs. You may use it for private study, scholarship, research or language learning purposes only