» » »

Down, The Man That Follows Hell Tabs (ver.1)

Artists:  A B C D E F G H I J K L M N O P Q R S T U V W X Y Z # 

The Man That Follows Hell Tabs (ver.1)

Down Tabs
 Rating:
4/5 (4 votes)
The Man That Follows Hell lessons Tabs too difficult? Try these video lessons and learn fast
                Down The Man That Follows Hell
-----from Down 2

All Johhny Junior guitar players make sure you tune your guitar right

Pepper uses Db/C# tuning for this song

TUNING 1 1/2 steps down
(C# F# B E G C#)

 Timing =  4/4

    INTRO Riff
    
   Gtr I
   
  Sixteenth note triplets boys and girls followed by an eigth note

|------------------------------------------------------------------|
|------------------------------------------------------------------|
|------------------------------------------------------------------|
|------------------------------------------------------------------|
|---------------------------3----------------------------3---------|
|---5p4p3---5p4p3---5p4p3--------5p4p3---5p4p3---5p4p3-------------|
|
|
|------------------------------------------------------------------|
|------------------------------------------------------------------|
|------------------------------------------------------------------|
|-------------------------3----------------------------5---5b7r====|
|------------------------------------------------------------------|
|-5p4p3---5p4p3---5p4p3--------5p4p3---5p4p3---5p4p3---------------|


Gtr#2 doubles the intro on the d sting starting on fret 7


Second part

|--------------------------------------------|
|--------------------------------------------|
|-9--5--9-7------------9--5--9-7-------------|
|-9--5--7-5--5h7p5-----9--5--7-5--5h7p5------|
|-7--7-------------7---7--7-------------7----|
|--------------------------------------------|


Third part
|------------------------------------------|
|------------------------------------------|
|--9--7----------7--5----------4-5--4-5----|
|--9--7----------7--5----------4-5--4-5----|
|-/7s=5----------5s=3----------2S3--2s3----|
|-------5-5-5-5-------3-3-3-3--------------|


If you want more down tabs just ask.
***************************************************************************************
            
Submit corrections

comments powered by Disqus
↑ Back to top | Down Tabs for The Man That Follows Hell. Lyrics for acoustic guitar and electric guitar. Tablatures and chords are parodies/interpretations of the original songs. You may use it for private study, scholarship, research or language learning purposes only