» » »

Down, New Orleans Is A Dying Whore Tabs (ver.2)

Artists:  A B C D E F G H I J K L M N O P Q R S T U V W X Y Z # 

New Orleans Is A Dying Whore Tabs (ver.2)

Down Tabs
 Rating:
4/5 (4 votes)
New Orleans Is A Dying Whore lessons Tabs too difficult? Try these video lessons and learn fast
1
                Tunning-Drop C# (C#,ab,db,gb,Bb,eb)
Finally a good tab for this song


Verse
--------------------------------|----------------------------------|
--------------------------------|----------------------------------|
--------------------------------|----------------------------------|
--------------------------------|----------------------------------|
-0000---------------------------|---0000--0-5-0-6-3/5--------------|
-0000--5p3-0h3-5B(1/2)r-3h5-----|---0000--0-5-0-6-3/5--------------|


Chorus/Pre-chorus          end 1       end 2
------------------------|---------|--------------------|
------------------------|---------|--------------------|
------------------------|---------|--------------------|
------------------------|---3-2---|--2-1---------------|
---------6~----------6~-|---3-2---|--2-1---------------|
--0-3h5-------0-3h5-----|---3-2---|--2-1---------------|

Solo-of course blues scale improvise

cool song
            
Submit corrections

comments powered by Disqus
↑ Back to top | Down Tabs for New Orleans Is A Dying Whore. Lyrics for acoustic guitar and electric guitar. 1 Tablatures and chords are parodies/interpretations of the original songs. You may use it for private study, scholarship, research or language learning purposes only