» » »

Down, Ghost Along The Mississippi Tabs (ver.2)

Artists:  A B C D E F G H I J K L M N O P Q R S T U V W X Y Z # 

Ghost Along The Mississippi Tabs (ver.2)

Down Tabs
 Rating:
4/5 (4 votes)
Ghost Along The Mississippi lessons Tabs too difficult? Try these video lessons and learn fast
                
Down
Ghosts Along the Mississippi
Tune down 1.5 steps


Intro 


p.m.......                             .........
1-------------------------------------|---------------------------------- 
2-------------------------------------|---------------------------------- 
3-------------------------------------|---------------------------------- 
4------------5p0----------------------|------------5p0------------------- 
5-----------------5p0-----------0h1---|----------------5p0---------0h1--- 
6--0-0-0-0------------5p0--3p0--------|--0-0-0-0----------5p0-3p0--------

p.m........                            ...........................
1-------------------------------------|---------------------------------- 
2-------------------------------------|---------------------------------- 
3-------------------------------------|---------------------------------- 
4------------5p0----------------------|---------------------------------- 
5-----------------5p0-----------0h1---|---------------------------------- 
6--0-0-0-0------------5p0--3p0--------|--0-0--0-0-0--0-0-0--0-0-0-12\----

p.m........                            .........
1-------------------------------------|------------------------------------ 
2-------------------------------------|------------------------------------ 
3-------------------------------------|------------------------------------ 
4------------5p0----------------------|------------5p0--------------------- 
5-----------------5p0-----------0h1---|----------------5p0----------------- 
6--0-0-0-0------------5p0--3p0--------|--0-0-0-0----------5p0-3p0------0h1-

p.m........                           ...........
1-------------------------------------|------------------------------------ 
2-------------------------------------|------------------------------------ 
3-------------------------------------|------------------------------------ 
4------------5p0----------------------|------------5p0--------------------- 
5-----------------5p0-----------0h1---|----------------5p0----------5/7~--- 
6--0-0-0-0------------5p0--3p0--------|--0-0-0-0----------5p0-3p0----------




Verse 1a
                  trill
1---------------------- 
2---------------------- 
3---------------------- 
4----6~----6-6\4-------
5----7~----7-7\5---4(5) 
6--0------------------- repeat 

Verse 2a
w/wah
1-------------------
2-------------------
3---9----------7--6-
4-------------------
5---7---10/12--5--4-
6-0-----------------

1--------------- 
2--15^----15^ w/ massive delay 
3--------------- 
4--------------- 
5--------------- 
6--------------- 

Pre-Chorus
gtr. 1 (played on 1st pre-chorus only)
1--------------------
2-------------------- 
3--12b--10~---10-12b- 
4----------/14------- 
5-------------------- 
6--------------------
|
|gtr 2
1----------------------
2----------------------
3----------------------
4--5---------4---------
5--3---------2---------
6--3---------2---------

Chorus 

1------------------ 
2------------------ 
3------------------ 
4-10\9-------------
5-8-\7-9-9--10\9-9- 
6------7-7--8-\7-7- repeat 

"...trying to kill whats happen to me..." 

1-------------- 
2-------------- 
3-------------- 
4-------------- 
5--5~-----4~--- 
6--3~-----2~--- 

Breakdown

1---------------------------------- 
2---------------------------------- 
3------12\------------------------- 
4------12\-------12----------------
5------10\-12/14----11-10---------- 
6-0-00--------------9--8---10-0-10~
            
Submit corrections

comments powered by Disqus
↑ Back to top | Down Tabs for Ghost Along The Mississippi. Lyrics for acoustic guitar and electric guitar. Tablatures and chords are parodies/interpretations of the original songs. You may use it for private study, scholarship, research or language learning purposes only