» » »

Belle Of The Boulevard Chords (ver.3)

Artists:  A B C D E F G H I J K L M N O P Q R S T U V W X Y Z # 

Belle Of The Boulevard Chords (ver.3)

Dashboard Confessional
Rating:
4/5 (5 votes)

Hard to play? Try these video lessons and learn fast.
                Intro]:

|------------------------------------------|
|-------9-12-9-----------9-12-9------------|
|--9-11--------11-9-9-11--------11-9-11----|
|------------------------------------------|      x2
|------------------------------------------|
|------------------------------------------|


|-----------------------------------------------------------|
|-------9------9~--------9------9~-------9-----9~--9---9----|
|--9-11---9-11------9-11---9-11-----9-11---9-11------9---11-|
|-----------------------------------------------------------|
|-----------------------------------------------------------|
|-----------------------------------------------------------|


E B Asus2 B

E
Down in a local bar
B
Out on the Boulevard
E
The sound of an old guitar
B
Is saving you from sinking
       Asus2                 B
It's a long way down, it's a long way

E 
Back like you never broke
B
You tell a dirty joke
E
He touches your leg
                B
And thinks he's getting close

For now you let him
Asus2
Just this once
B
Just for now
    Asus2
And just like that
     B
It's over

      E
Don't turn away
Asus2
Dry your eyes, dry your eyes
      C#m
Don't be afraid
            Asus2
But keep it all inside, all inside
         E
When you fall apart
Asus2
Dry your eyes, dry your eyes
C#m
Life is always hard
        Asus2
For the Belle of the Boulevard

In all your silver rings 
In all your silken things 
That song you softly sing 
Is keeping you from breaking 
It's a long way down, it's a long way 

Back here you never lost 
You shake the shivers off 
You take a drink 
To get your courage up 
Can you believe it? 
Just this once 
Just for now 
And just like that 
It's over 

[Chorus] 

E                    B
Please hold on, it's alright
C#m                  B
Please hold on, it's alright 
Asus2          B
Please hold on 

Down in a local bar 
Out on the boulevard 
The sound of an old guitar 
Is saving you 

[Chorus] 
            
Hard to play? Try these video lessons and learn fast. | Correct




comments powered by Disqus
↑ Back to top | Tablatures and chords are parodies/interpretations of the original songs. You may use it for private study, scholarship, research or language learning purposes only