» » »

Dashboard Confessional, Belle Of The Boulevard Tabs (ver.2)

Artists:  A B C D E F G H I J K L M N O P Q R S T U V W X Y Z # 

Belle Of The Boulevard Tabs (ver.2)

Dashboard Confessional Tabs
Rating:
5/5 (22 votes)
Belle Of The Boulevard lessons Tabs too difficult? Try these video lessons and learn fast
                Hey all. I sat down and i figures out how to play there new single on the acoustic. I 
you enjoy.
Tried my best to put it in a decent strumming pattern. You should be able to figure out
strum thats comfortable and fits.

Standard Tuning
e
B
G
D
A
E

Same tabs for the first verse and pre chorus apply to the second verse and pre chorus

VERSES and PRE CHORUSES:

...Down in a local bar (Verse 1)
...You know your silver rings(Verse 2)

|------------------------------|
|------------------------------|
|--9--9--9--9--9--9--9--9------|
|--9--9--9--9--9--9--9--9------|      x2
|--7--7--7--7--0--0--0--0------|
|------------------------------|


...It's a long way down

|-----------------------------|
|-----------------------------|
|--6--6--6--6--4--4--4--4-----|
|--6--6--6--6--4--4--4--4-----|
|--4--4--4--4--2--2--2--2-----|
|-----------------------------|

...back like you never broke (Verse 1)
...back here you never lost (Verse2)

|------------------------------|
|------------------------------|
|--9--9--9--9--9--9--9--9------|
|--9--9--9--9--9--9--9--9------|      x2
|--7--7--7--7--0--0--0--0------|
|------------------------------|

....just this once

|------------------------------------------------------|
|------------------------------------------------------|
|--6--6--6--6--6--6--6--6--6--6--6--6--4--4--4--4------|
|--6--6--6--6--6--6--6--6--6--6--6--6--4--4--4--4------|
|--4--4--4--4--0--0--0--0--4--4--4--4--2--2--2--2------|
|------------------------------------------------------|

CHORUS:

....dont turn away

|------------------------------|
|------------------------------|
|--9--9--9--9--9--9--9--9------|
|--9--9--9--9--9--9--9--9------|      x2
|--7--7--7--7--0--0--0--0------|
|------------------------------|

...when you fall apart

|------------------------------|
|------------------------------|
|--6--6--6--6--6--6--6--6------|
|--6--6--6--6--6--6--6--6------|
|--4--4--4--4--0--0--0--0------|
|------------------------------|

...life is always hard

|-------------------------------------|
|-------------------------------------|
|--6--6--6--6--4--4--4--4--4--4--4--4-|
|--6--6--6--6--4--4--4--4--4--4--4--4-|
|--4--4--4--4--0--0--0--0--2--2--2--2-|
|-------------------------------------|

SMALL INSTRUMENTAL BEFORE BRIDGE:

|-------------------------------------------------|
|-------------------------------------------------|
|--4--4--4--4--4--4--4--4--6--6--6--6--6--6--6--6-|
|--4--4--4--4--4--4--4--4--6--6--6--6--6--6--6--6-|
|--2--2--2--2--0--0--0--0--4--4--4--4--0--0--0--0-|
|-------------------------------------------------|


BRIDGE:

please hold on its aright...

|------------------------------|
|------------------------------|
|--9--9--9--9--9--9--9--9------|
|--9--9--9--9--9--9--9--9------|      x2
|--7--7--7--7--0--0--0--0------|
|------------------------------|

please hold on...

|------------------------------|
|------------------------------|
|--6--6--6--6--6--6--6--6------|
|--6--6--6--6--6--6--6--6------|
|--4--4--4--4--0--0--0--0------|
|------------------------------|

i think you could figure out the rest from there. I hope this was helpful to all you
fans out there.
            

comments powered by Disqus
↑ Back to top | Dashboard Confessional Tabs for Belle Of The Boulevard. Lyrics for acoustic guitar and electric guitar. Tablatures and chords are parodies/interpretations of the original songs. You may use it for private study, scholarship, research or language learning purposes only