» » »

Dashboard Confessional, Belle Of The Boulevard Tabs (ver.1)

Artists:  A B C D E F G H I J K L M N O P Q R S T U V W X Y Z # 

Belle Of The Boulevard Tabs (ver.1)

Dashboard Confessional Tabs
Rating:
4/5 (3 votes)
Belle Of The Boulevard lessons Tabs too difficult? Try these video lessons and learn fast
                I would first of all like to say that some of this was worked out by the unregistered
who did the chords version but I've just tweaked a few things and added tabbed parts for
intro, solo and outro. Also I haven't bothered putting the right spacing inbetween notes 
the tabbed parts because it's very easy to work out if you just listen to the song :)

Chords:
E5:     x799xx
D#7:   x698xx
Asus2: x022xx
Bsus2: x244xx
E:    0221xx
C#m:   x466xx


[Intro]:

|------------------------------------------|
|-------9-12-9-----------9-12-9------------|
|--9-11--------11-9-9-11--------11-9-11----|
|------------------------------------------|      x2
|------------------------------------------|
|------------------------------------------|


|-----------------------------------------------------------|
|-------9------9~--------9------9~-------9-----9~--9---9----|
|--9-11---9-11------9-11---9-11-----9-11---9-11------9---11-|
|-----------------------------------------------------------|
|-----------------------------------------------------------|
|-----------------------------------------------------------|


E5 D#7 Asus2 Bsus2

E5                     D#7
  Down in a local bar
                     E5
Out on the Boulevard

The sound of an old guitar
   D#7
Is saving you from sinking
       Asus2                 Bsus2
It's a long way down, it's a long way

E5                           D#7
  Back like you never broke
                      E5
You tell a dirty joke

He touches your leg
                D#7
And thinks he's getting close

For now you let him
Asus2
Just this once
Bsus2
Just for now
    Asus2
And just like that
     Bsus2
It's over

      E
Don't turn away
Asus2
Dry your eyes, dry your eyes
      C#m
Don't be afraid
            Asus2
But keep it all inside, all inside
         E
When you fall apart
Asus2
Dry your eyes, dry your eyes
C#m
Life is always hard
        Asus2
For the Belle of the Boulevard

B]--9------9---------|
G]----11-9---11--11--|

E5                          D#7
  In all your silver rings
                          E5
In all your silken things

That song you softly sing
   D#7
Is keeping you from breaking
       Asus2                 Bsus2
It's a long way down, it's a long way

E5                             D#7
  Back here you're never lost
                          E5
You shake the shivers off

You take a drink
            D#7
To get your courage up

Can you believe it?
Asus2
Just this once
Bsus2
Just for now
    Asus2
And just like that
     Bsus2
It's over

      E
Don't turn away
Asus2
Dry your eyes, dry your eyes
      C#m
Don't be afraid
            Asus2
But keep it all inside, all inside
         E
When you fall apart
Asus2
Dry your eyes, dry your eyes
C#m
Life is always hard
        Asus2
For the Belle of the Boulevard

[Solo]

|----------9-----------9----12-------12-------12----12-14-14-16-16~-|
|--9-10-12-----9-10-12---12----12-12----12-12----12-----------------|
|------------9------------------------------------------------------|
|-------------------------------------------------------------------|
|-------------------------------------------------------------------|
|-------------------------------------------------------------------|


E5                    D#7
Please hold on, it's alright
C#m                  Bsus2
Please hold on, it's alright
Asus2          Bsus2
Please hold on

E5                     D#7
  Down in a local bar
                     E5
Out on the Boulevard

The sound of an old guitar
   D#7
Is saving you

      E
Don't turn away
Asus2
Dry your eyes, dry your eyes
      C#m
Don't be afraid
            Asus2
But keep it all inside, all inside
         E
When you fall apart
Asus2
Dry your eyes, dry your eyes
C#m
Life is always hard
Asus2
Dry your eyes, dry your eyes
      E
Don't turn away
Asus2
Dry your eyes, dry your eyes
      C#m
Don't be afraid
            Asus2
But keep it all inside, all inside
         E
When you fall apart
Asus2
Dry your eyes, dry your eyes
C#m
Life is always hard
        Asus2
For the Belle of the Boulevard

|----------------------------------------------|
|-------9-12-9-----------9-12-9----------------|
|--9-11--------11-9-9-11--------11-9-11-9~-----|
|----------------------------------------------|
|----------------------------------------------|
|----------------------------------------------|

And that's it. PLease rate and comment and feel free to make suggestions
            
Submit corrections

comments powered by Disqus
↑ Back to top | Dashboard Confessional Tabs for Belle Of The Boulevard. Lyrics for acoustic guitar and electric guitar. Tablatures and chords are parodies/interpretations of the original songs. You may use it for private study, scholarship, research or language learning purposes only