» » »

Dashboard Confessional, Carry This Picture For Luck Tabs (ver.1)

Artists:  A B C D E F G H I J K L M N O P Q R S T U V W X Y Z # 

Carry This Picture For Luck Tabs (ver.1)

Dashboard Confessional Tabs
 Rating:
4/5 (4 votes)
Carry This Picture For Luck lessons Tabs too difficult? Try these video lessons and learn fast
1
                Carry This Picture For Luck 
Dashboard Confessional 
A Mark, A Mission, A Brand, A Scar 

Eb Ab Db Gb Bb eb 

Intro 
|-------------| 
|-------------| 
|-------2p0---| 
|-0h2h4-----4-| 
|-------------| 
|-------------| 

Verse 
|-------------------------| 
|-------------------------| 
|-------------------------| 
|-0--0--2--0--5--0--4--0--| 
|-2--0--3--3--4--4--5--5--| 
|-3--3--3--3--5--5--5--5--| 
     ^     ^     ^     ^ 


|-------------------------| 
|-------------------------| 
|-------------------------| 
|-3--0--2--0--5--0--4--0--| 
|-2--2--3--3--4--4--5--5--| 
|-3--3--3--3--5--5--5--5--| 
     ^     ^     ^     ^ 

Chorus 
|-3--0--0--0--0-0-0---0--0--0--0-| 
|-3--0--0--0--0-0-0---0--0--0--0-| 
|-0--0--0--0--0-0-0---0--0--0--0-| 
|-0--4--4--5--5-7-9---7--7--2--4-| 
|-2--6--6--7--7-9-12--8--6--3--5-| 
|-3-----5--0----------8--7-----5-| 

End 
|---------------3-| 
|---------------3-| 
|---------------0-| 
|-----0-4-5-0---0-| 
|---2---------2-2-| 
|-3-------------3-|
            
Submit corrections

comments powered by Disqus
↑ Back to top | Dashboard Confessional Tabs for Carry This Picture For Luck. Lyrics for acoustic guitar and electric guitar. 1 Tablatures and chords are parodies/interpretations of the original songs. You may use it for private study, scholarship, research or language learning purposes only