» » »

Belle Of The Boulevard Tabs (ver.3)

Artists:  A B C D E F G H I J K L M N O P Q R S T U V W X Y Z # 

Belle Of The Boulevard Tabs (ver.3)

Dashboard Confessional
Rating:
0/5 (0 votes)

Hard to play? Try these video lessons and learn fast.
                Please Comment.thanks!

Intro: 
e-0-2-4-7-4-2-0-0-2-4-7-4-2-0-2-0-|       -0-2-4-0-2-4 (x3) then 4-0-4-2   
B---------------------------------|
G---------------------------------|  X2
D---------------------------------|
A---------------------------------|
E---------------------------------|

Intro: Rhythm Guitar (I dont know the names of the power chords, just figure it out.)
E - Emaj7 - 466 - 244 - A4 - 244 - A4 - 244

(466)     (244)
e--        --
B--        --
G-6        -4
D-6        -4
A-4        -2
E--        --

Verse:
E
Down in a local bar
Emaj7
Out on the Boulevard
E
The sound of an old guitar
Emaj7
Is saving you from sinking
A4                      (244)
It's a long way down, It's a long way

(Same verse chords for this lines)
Back like you never broke
You tell a dirty joke
He touches your leg
And thinks He's getting close
For now you let him
Just this once
Just for now
And just like that
It's over.

Chorus:

E
Don't turn away
A4
Dry your eyes, dry your eyes
(466)
Don't be afraid
A4
But keep it all inside, all inside
E
When you fall apart
A4
Dry your eyes, dry your eyes
(466)
Life is always hard
A4
For the Belle of the Boulevard

(Use same chords for the first verse)
In all your silver rings
In all your silken things
That song you softly sing
Is keeping you from breaking
It's a long way down, it's a long way

Back here you never lost
You shake the shivers off
You take a drink
To get your courage up
Can you believe it?
Just this once
Just for now
And just like that
It's over

~Repeat Chorus~

Instumental:
Chords
Emaj7 - A4 - A4 - (244)
Lead:
e-----------7-9--------------7-9-7-7-12-12-7-12-7-7-12-7-12-12-14-16/17\16-|
B------9-10-------------9-10-----------------------------------------------|
G-9-11----------9--9-11----------------------------------------------------|
D--------------------------------------------------------------------------|
A--------------------------------------------------------------------------|
E--------------------------------------------------------------------------|

Bridge:
E                 Emaj7
Please hold on, it's alright
(466)             (244)
Please hold on, it's alright
A4           (244)
Please hold on

E
Down in a local bar
Emaj7
Out on the boulevard
E
The sound of an old guitar
Emaj7
Is saving you

Repeat Chorus Twice:

End In:
e-0-2-4-7-4-2-0-0-2-4-7-4-2-0-2-0-|
B---------------------------------|
G---------------------------------|
D---------------------------------|
A---------------------------------|
E---------------------------------|
            
Hard to play? Try these video lessons and learn fast. | Correct




comments powered by Disqus
↑ Back to top | Tablatures and chords are parodies/interpretations of the original songs. You may use it for private study, scholarship, research or language learning purposes only