» » »

Uneasy Hearts Weigh The Most Tabs (ver.5)

Artists:  A B C D E F G H I J K L M N O P Q R S T U V W X Y Z # 

Uneasy Hearts Weigh The Most Tabs (ver.5)

Dance Gavin Dance
Rating:
0/5 (0 votes)

Tabs too difficult? Try these video lessons and learn fast.
                -------------------------------------------------------------------------------
                            Uneasy Hearts Weigh The Most
-------------------------------------------------------------------------------

This is the 2nd guitar mainly playing in the right speaker. I think its Zac Garren 
Its starts at about 56 seconds in. I thought it would be fun to play, but its just guess work 
correct me if Im wrong. It would be cool to get this whole song up.

Tuning: standard

e|--14-----17-16-14----------14\-- 17-16-14—-14----17-16-14---14---19\-- ----|
B|--17b-------------17-14------------------17---------------17---------------|
G|------------------------16-------------------------------------------------|
D|---------------------------------------------------------------------------|
A|---------------------------------------------------------------------------|
E|---------------------------------------------------------------------------|

e|---12-14-12-14-----12/14-12--------12----------12---------------12---------|
B|---------------------------14-12-14--14---14-14-----14-14-12-14------------|
G|---------------------------------------------------------------------------|
D|---------------------------------------------------------------------------|
A|---------------------------------------------------------------------------|
E|---------------------------------------------------------------------------|

e|---------------------------------------------------------------------------|
B|--14-12-----------------------9h10---9\---7----7\----x2--------------------|
G|--------14-13-11-13-----------11-----11\--9----9\--------------------------|
D|---------------------------------------------------------------------------|
A|---------------------------------------------------------------------------|
E|---------------------------------------------------------------------------|

e|------------------12/14---10\9---------------------------------------------|
B|----9h10---9\-----14/16---12\11--------------------------------------------|
G|----11-----11\-------------------------------------------------------------|
D|---------------------------------------------------------------------------|
A|---------------------------------------------------------------------------|
E|---------------------------------------------------------------------------|


| /  slide up
| \  slide down
| h  hammer-on
| p  pull-off
| ~  vibrato
| +  harmonic
| x  Mute note
===============================================================================
            
Tabs too difficult? Try these video lessons and learn fast.




comments powered by Disqus
↑ Back to top | Tablatures and chords are parodies/interpretations of the original songs. You may use it for private study, scholarship, research or language learning purposes only