» » »

Uneasy Hearts Weigh The Most Tabs (ver.2)

Artists:  A B C D E F G H I J K L M N O P Q R S T U V W X Y Z # 

Uneasy Hearts Weigh The Most Tabs (ver.2)

Dance Gavin Dance
Rating:
0/5 (0 votes)

Tabs too difficult? Try these video lessons and learn fast.
                
----------9----------------------------------4--------------------------------|
-----7-10-------------------------------2--5----------------------------------|
---7----------------------------------2----------------------x2---------------|x6
-9------------------------x2--------4-----------------------------------------|
----------------9---9-----------------------------4---4-------------4------7--|
------------7----------7-----------------------2---------2------222---2-555---|
   Intro/verse

------------------------------------------------------------------------------|
------------------------------------------------------------------------------|
------------------------------------------------------------------------------|
-----------7/9-9-9-9--7/9--11-9--4-----4-4-4---4---4---9--7-------------------|x2
-----------x-x-x-x-x--x-x--x--x--x-x2--x-x-x---x---x---x--x-x2----------------|
-----------5/7-7-7-7--5/7--9--7--2-----2-2-2-0h2-0h2---7--5-------------------|
     Chorus

------99--9-9-9-9-9--99--99-9-9-9-9-9-99--44-4-4-4-4-4-44-44-4-4-4-4-4--------|
------77--7-7-7-7-7--77--77-7-7-7-7-7-77--22-2-2-2-2-2-22-22-2-2-2-2-2--------|
------77--7-7-7-7-7--77--99-9-9-9-9-9-99--22-2-2-2-2-2-22-44-4-4-4-4-4-x2-----|
------99--9-9-9-9-9--99--77-7-7-7-7-7-77--44-4-4-4-4-4-44-22-2-2-2-2-2--------|
------------------------------------------------------------------------------|
------------------------------------------------------------------------------|
       Bridge

-------9-9-9------------------------------------------------------------------|
-------x-x-x------------------------------------------------------------------|
-------7-7-7--x8--------------------------------------------------------------|
------------------------4-4-4-----14/-444-------------------------------------|
------------------------x-x-x-----x/--xxx-------------------------------------|
------------------------2-2-2-----12/-222-------------------------------------|
      Breakdown

Order
Intro/Verse
Chorus
Verse
Chorus
Bridge
Breakdown
Bridge
            
Tabs too difficult? Try these video lessons and learn fast.


comments powered by Disqus
↑ Back to top | Tablatures and chords are parodies/interpretations of the original songs. You may use it for private study, scholarship, research or language learning purposes only