» » »

Uneasy Hearts Weigh The Most Bass tabs (ver.1)

Artists:  A B C D E F G H I J K L M N O P Q R S T U V W X Y Z # 

Uneasy Hearts Weigh The Most Bass tabs (ver.1)

Dance Gavin Dance
Rating:
0/5 (0 votes)

Tabs too difficult? Try these video lessons and learn fast.
                Sounds perfectly good to me. Please rate, leave comments, and suggestions!

This is also my first tab :D!

*EDIT* Edited some things. Now its even more correct!

________________________________________________________

Intro (0:13-0:33):
(People say that there is no bass part in the intro, but you can hear it) It changes 
the 7th and 9th fret to the 2nd and 4th fret.
G|-----------------------|
D|-----------------------|
A|---9-9----------4-4----|
E|-7-----7-7----2-----2-2|

BUT you can also play it like this:
G|----------------------------|
D|---4-4----------------------|
A|-2-----2-2------4-4---------|
E|--------------2-----2-2-----|


Chorus 1 (0:34-0:56)
correct: 
G|---------------------------------------------------------------------|
D|---------------------------------------------------------------------|
A|---------------------------------------------------------------------|
E|-5/77777-5-7-9-5-2-5/77777-5-7-9-5-2-0-22222-0-2-7-5-0-22222-0-2--9-7|

OR you can play it like this

G|-------------------------------------------------------------------------|
D|-------------------------------------------------------------------------|
A|-0h22222-0-2-4-0---0h22222-0-2-4-0----------------2-0-----------------4-2|
E|-----------------2-----------------2--0h22222-0-2--------0h22222-0-2-----|
Intro Again (0:57-1:42)
Chorus 1 (1:43-2:03)


Chorus 2 (2:04-2:27)
G|-------------------------------------------------------------------------|
D|-------------------------------------------------------------------------|
A|-5-55-5-5-5-5-55-2-22-2-2-2-2-22-7-77-7-7-7-7-77--7-77-7-7-7-7-77--------|
E|-------------------------------------------------------------------------|

OR you can play it like this:

G|---------------------------------------------------------------------|
D|-2-22-2-2-2-2-22-0-00-0-0-0-0--00-4-44-4-4-4-4-4-44-4-44-4-4-4-4-44--|
A|---------------------------------------------------------------------|
E|---------------------------------------------------------------------|

Breakdown (laughs)(2:39-2:50)
G|----------------------------------------|
D|----------------------------------------|
A|----------------------------------------|
E|-222-222-222--222-222---222---222---2---|

Chorus 2 (3:03-3:39)

That's it! Please leave comments and rate!

| b  bend
| r  release
| /  slide up
| \  slide down
| h  hammer-on
| p  pull-off
| ~  vibrato
| +  harmonic
| x  Mute note
            
Tabs too difficult? Try these video lessons and learn fast.




comments powered by Disqus
↑ Back to top | Tablatures and chords are parodies/interpretations of the original songs. You may use it for private study, scholarship, research or language learning purposes only