» » »

Dance Gavin Dance, Spooks Tabs (ver.3)

Artists:  A B C D E F G H I J K L M N O P Q R S T U V W X Y Z # 

Spooks Tabs (ver.3)

Dance Gavin Dance Tabs
 Rating:
4/5 (4 votes)
Spooks lessons Tabs too difficult? Try these video lessons and learn fast
                e|------------------------7------7-------------------------7--8-7-----------|
B|-6---5-------5--------------------8------5------5-------------------------|
G|-----------2---5-----5-------5----------2-----2---5----5------------------|
D|---7-----3---------7-------7----------3-----3---------7-------------------|
A|--------------------------------------------------------------------------|
E|--------------------------------------------------------------------------|

verse
e|-7h8p7---------10-8-7---7h8p7----------------------12h15------------------|
B|-------10-8-10----------------10-8-10--12h13-12h13------------------------|
G|------------------------------------------------------------(x3)----------|
D|--------------------------------------------------------------------------|
A|--------------------------------------------------------------------------|
E|--------------------------------------------------------------------------|

e|-7h8p7---------10-8-7--7-8-15-7-------------------------------------------|
B|-------10-8-10------------------------------------------------------------|
G|--------------------------------------------------------------------------|
D|--------------------------------------------------------------------------|
A|--------------------------------------------------------------------------|
E|--------------------------------------------------------------------------|


e|-15p12-12-15p12-12-19p15-15-20p15-12--(x3)--15p12-12--15p12-12-10---------|
B|--------------------------------------------------------------------------|
G|--------------------------------------------------------------------------|
D|--------------------------------------------------------------------------|
A|--------------------------------------------------------------------------|
E|--------------------------------------------------------------------------|

e|-7p5-7p5-7p5-7p5-8-7--7---3h5p3-3h5p3-7p5-7p5-7p5-7p5-8-7--7--10h12p10----|
B|--------------------------------------------------------------------------|
G|---------------------5--5---------------------------------5--5------------|
D|--------------------------------------------------------------------------|
A|--------------------------------------------------------------------------|
E|--------------------------------------------------------------------------|

e|-12h13p12-----------------------------------------------------------------|
B|--------------------------------------------------------------------------|
G|--------------------------------------------------------------------------|
D|--------------------------------------------------------------------------|
A|--------------------------------------------------------------------------|
E|--------------------------------------------------------------------------|

more to come
            
Submit corrections

comments powered by Disqus
↑ Back to top | Dance Gavin Dance Tabs for Spooks. Lyrics for acoustic guitar and electric guitar. Tablatures and chords are parodies/interpretations of the original songs. You may use it for private study, scholarship, research or language learning purposes only