>
 >
Elder Goose 1

Elder Goose 1 Guitar Tabs

Dance Gavin Dance - Elder Goose 1 chords, tabs, tablatures, lyrics

Guitar lessons | Add/correct | Request | Top 50 tabs Artists:  A B C D E F G H I J K L M N O P Q R S T U V W X Y Z 0-9

Elder Goose 1 Guitar Tabs – Dance Gavin Dance

CD, Sheet music, Poster

Do you like Elder Goose 1? Share with your friends now
TabsTabs v2


Intro (0:00 - 0:26)
e|----------------------------------------------------------------|
B|----------------------------------------------------------------|
G|----------------------------------------------------------------|
D|---3---3------------12----12------------------------------------|
A|---------3-3--------------------12/13---------------------------|
D|-1---1----1------10----10----10---------------------------------|


e|-----------------------------10---10----------------------------|
B|-10-10-10-10-11---10~------10--10---10--------------------------|
G|-12-12-12-12-12---12~------12--12---12--------------------------|
D|-12-12-12-12-12---12~------10--12---12--------------------------|
A|-10-10-10-10-10---10~------12--10---10--------------------------|
D|--------------------------------------10h12~--------------------|

(0:27 - 0:53)
e|-------------------------------------------------------------------|
B|-------------------------------------------------------------------|
G|-15-15-14-15~--15-15-14-15------15-15-14-15~--15-15-14-15--17------| (3x)
D|---------------------------15--------------------------------------|
A|-------------------------------------------------------------------|
D|-------------------------------------------------------------------|

The 4th time he plays it he does this
e|-------------------------------------------------------------------|
B|-------------------------------------------------------------------|
G|-15-15-14-15~--15-15-14-15------15-15-14-15~-----------------------|
D|---------------------------15-----------------15-13-12-------------|
A|-------------------------------------------------------13----------|
D|-------------------------------------------------------------------|

(0:54 - 1:05)
e|-------------------------------------------------------------------|
B|-------------------------------------------------------------------|
G|-------------------------------------------------------------------|
D|----15-13-12----------15-13-12----12-------------------------------|
A|-------------13~---------------15---15~----------------------------|
D|-------------------------------------------------------------------|


e|--------------------------------------------------------------------|
B|--------------------------------------------------------------------|
G|--------------------------------------------------------------------|
D|--15-13-12-----15-13-12------15-13-12-----12---12---12~-------------|
A|-----------13~----------13~-----------15----15---15-----------------|
D|--------------------------------------------------------------------|


(1:06 - 1:28) Guitar 1
e|----------------------------------------------------------------------|
B|----------------------------------------------------------------------|
G|-------5s77777-5-5-5-555555533333333-------5s777775555553333332222----| (4x)
D|-1-1-1---------7-7-7-----------------3-3-3-x-xxxxxxxxxxxxxxxxx3333----|
A|-1-1-1-3s55555-8-8-8-333333311111111-5-5-5-3s555553333331111111111----|
D|-1-1-1---------8-8-8-----------------5-5-5----------------------------|

(1:29 - 1:51)
e|-------------------------------------------------------------------|
B|-------------------------------------------------------------------|
G|-------------------------------------------------------------------|
D|------15------15--15s17----------15------15--15s17-----------------|
A|-10h13---10h13---------15~--10h13---10h13---------17~--------------|
D|-------------------------------------------------------------------|


e|-------------------------------------------------------------------|
B|--------------------------10h11p10---------------15----------------|
G|---------------------------------12p10h12p10-------14-15~----------| (4x)
D|------15------15--15s17---------------------12---------------------|
A|-10h13---10h13---------15------------------------------------------|
D|-------------------------------------------------------------------|

(1:52 - 2:15)
e|-------------------------------------------------------------------|
B|-----------------5-5-5-5-5-5-5-5-----------------------------------|
G|-----------------5-5-5-5-5-5-5-5-----------------------------------|
D|-1-1-1-1-1-1-1-1-3-3-3-3-3-3-3-3-5-5-5-5-5-5-5-5-5-5-5-5-5-5-5-5---| (4x)
A|-1-1-1-1-1-1-1-1-----------------5-5-5-5-5-5-5-5-5-5-5-5-5-5-5-5---|
D|-1-1-1-1-1-1-1-1-----------------5-5-5-5-5-5-5-5-5-5-5-5-5-5-5-5---|

(2:16 - 2:22)
e|------------------------|
B|------------------------|
G|-8~---12~-----10~---7~--|
D|------------------------|
A|------------------------|
D|------------------------|


(2:23 - 2:45)
e|----------------------------------------------------------------------|
B|----------------------------------------------------------------------|
G|-------5s77777-5-5-5-555555533333333-------5s777775555553333332222----| (4x)
D|-1-1-1---------7-7-7-----------------3-3-3-x-xxxxxxxxxxxxxxxxx3333----|
A|-1-1-1-3s55555-8-8-8-333333311111111-5-5-5-3s555553333331111111111----|
D|-1-1-1---------8-8-8-----------------5-5-5----------------------------|

(2:46 - 2:48)
e|-------------------------------------------------------------------|
B|-------------------------------------------------------------------|
G|-------------------------------------------------------------------|
D|------15------15--15s17----------15------15--15s17-----------------|
A|-10h13---10h13---------15~--10h13---10h13---------17~--------------|
D|-------------------------------------------------------------------|

(2:49 - 3:12)       *Tremolo picking
e|-------------15~------------------------------------------------------|
B|--18*-15*-18*-----13^-------------------------------------------------|
G|---------------------15-12~-------------------------------------------| (4x)
D|----------------------------------------------------------------------|
A|----------------------------------------------------------------------|
D|----------------------------------------------------------------------|

(3:13 - 3:37)
e|----------22-20-18---------15/---------------------------------------------|
B|-20-202020--------20~-(4x)-------------------------------------------------|
G|---------------------------------------------------------------------------|
D|---------------------------------------------------------------------------|
A|---------------------------------------------------------------------------|
D|---------------------------------------------------------------------------|



e|----------22-20-18---------15/---------------------------------------------|
B|-20-202020--------20~-(6x)-------------------------------------------------|
G|---------------------------------------------------------------------------|
D|---------------------------------------------------------------------------|
A|---------------------------------------------------------------------------|
D|---------------------------------------------------------------------------|





Comments


Popular Dance Gavin Dance tabs & chords
Me And Zoloft Get Along Just Fine 2 Bass Tabs
Surprise Im From Cuba Everyone Has One Brain Bass Tabs
Burning Down The Nicotine Armoire Part 2 Intro Tabs
Im Down With Brown Town Intro Tabs
Nasa Intro Tabs
Open Your Eyes And Look North 1 Tabs
Privilously Poncheezied Intro Tabs
Self-trepanation Tabs
Skyhook Intro Tabs
The Importance Of Cocaine Tabs


Song lyrics



↑ Back to top | Tablatures and chords are parodies/interpretations of the original songs. You may use it for private study, scholarship, research or language learning purposes only
© 2014 AZChords.com Contact us | Privacy policy | DMCA | Add/correct tabs | Request tabs | Top 50 tabs