>
 >
Carl Barker

Carl Barker Guitar Tabs

Dance Gavin Dance - Carl Barker chords, tabs, tablatures, lyrics

Guitar lessons | Add/correct | Request | Top 50 tabs Artists:  A B C D E F G H I J K L M N O P Q R S T U V W X Y Z 0-9

Carl Barker Guitar Tabs – Dance Gavin Dance

CD, Sheet music, Poster

Do you like Carl Barker? Share with your friends now
Tabs
**IMPORTANT**I DO NOT TAKE CREDIT FOR THIS!!

I decided to export this from CarlBarkers tab from Guitar pro for those who not have it. 

I plan on making this more user friendly once i get the time.

Tuning: Drop D

Right Guitar 
     E  S S S  S  S S S  S S S  S  S S  S   E  S S S  S  E  S  E  S S  E  S  
E||---------------------------------------|-----------------1s-3------------|
B||---------------------------------------|-------------------------1s-3----|
G||---------7s-9s-7---5s-7-x-3s-5s-0------|----2---2s-3s-5------------------|
D||----------------------------------3s-5-|---------------------------------|
A||-----x-x-------------------------------|---------------------------------|
D||--5--x-x-------------------------------|---------------------------------|


  E  S S S  S  S S S  S S S  S  S S  S  
---------------------------------------|
---------------------------------------|
---------7s-9s-7---5s-7-x-3s-5s-0------|
----------------------------------3s-5-|
-----x-x-------------------------------|
--3--x-x-------------------------------|


  E  S S S S  E   S  S  S   S  S   S  S   S  
-------------------------------------13s-15-|
-----6---6-8-----11s-8--------11s-13--------|
-------7---------------10s-12---------------|
-------------10-----------------------------|
--------------------------------------------|
--------------------------------------------|


  E  S S S  S  S S S  S S S  S  S S  S    E  S S S  S  E  S  E  S S  E  S  
---------------------------------------|------------------1s-3------------|
---------------------------------------|--------------------------1s-3----|
---------7s-9s-7---5s-7-x-3s-5s-0------|-----2---2s-3s-5------------------|
----------------------------------3s-5-|----------------------------------|
-----x-x-------------------------------|----------------------------------|
--5--x-x-------------------------------|----------------------------------|


  E  S S S  S  S S S  S S S  S  S S  S    E  S S S S  H         E   
---------------------------------------|---------------------------|
---------------------------------------|-----6---6-8---------------|
---------7s-9s-7---5s-7-x-3s-5s-0------|-------7-------------------|
----------------------------------3s-5-|-------------10---------L--|
-----x-x-------------------------------|---------------------------|
--3--x-x-------------------------------|---------------------------|


   E  S S  E  S S  S  S  S  S S  S  S  S  
-----------------------------------------|
--11--x-x-11--x-x-11-11-11-11-x-11-11-11-|
--12--x-x-12--x-x-12-12-12-12-x-12-12-12-|
-----------------------------------------|
-----------------------------------------|
-----------------------------------------|


  S S  S S  S S S S  S  S  S  S S  S  S  S  
-------------------------------------------|
--x-x-11-x-11-x-x-x-11-11-11-11-x-11-11-11-|
--x-x-12-x-12-x-x-x-12-12-12-12-x-12-12-12-|
-------------------------------------------|
-------------------------------------------|
-------------------------------------------|


   E  S S  E  S S  S  S  S  S  S  S  S  S  
------------------------------------------|
--10--x-x-10--x-x-10-10-10-10--x-10-10-10-|
--10--x-x-10--x-x-10-10-10-10--x-10-10-10-|
------------------------------------------|
------------------------------------------|
------------------------------------------|


  S S  S S  S S S S  S  S  S  S S  S  S  S  
------10-x-10-x-x-x-10-10-10-10-x-10-10-10-|
--x-x-10-x-10-x-x-x-10-10-10-10-x-10-10-10-|
--x-x-10-x-10-x-x-x-10-10-10-10-x-10-10-10-|
-------------------------------------------|
-------------------------------------------|
-------------------------------------------|


   E  S S  E  S S  S  S  S  S S  S  S  S  
-----------------------------------------|
--11--x-x-11--x-x-11-11-11-11-x-11-11-11-|
--12--x-x-12--x-x-12-12-12-12-x-12-12-12-|
-----------------------------------------|
-----------------------------------------|
-----------------------------------------|


  S S  S S  S S S S  S  S  S  S S  S  S  S  
-------------------------------------------|
--x-x-11-x-11-x-x-x-11-11-11-11-x-11-11-11-|
--x-x-12-x-12-x-x-x-12-12-12-12-x-12-12-12-|
-------------------------------------------|
-------------------------------------------|
-------------------------------------------|


   E  S S  E  S S  S  S  S  S  S  S  S  S    S S  S S  S S S S S  E.  S E.   
--10--x-x-10--x-x-10-10-10-10--x-10-10-10-|--x-x-10-x-10-x-x-x--------------|
--10--x-x-10--x-x-10-10-10-10--x-10-10-10-|--x-x-10-x-10-x-x-x-8-11---6-8---|
--10--x-x-10--x-x-10-10-10-10--x-10-10-10-|--x-x-10-x-10-x-x-x--------------|
------------------------------------------|---------------------------------|
------------------------------------------|---------------------------------|
------------------------------------------|---------------------------------|


   E  S S  E  S S  S  S  S  S S  S  S  S  
-----------------------------------------|
--11--x-x-11--x-x-11-11-11-11-x-11-11-11-|
--12--x-x-12--x-x-12-12-12-12-x-12-12-12-|
-----------------------------------------|
-----------------------------------------|
-----------------------------------------|


  S S  S S  S S S S  S  S  S  S S  S  S  S  
-------------------------------------------|
--x-x-11-x-11-x-x-x-11-11-11-11-x-11-11-11-|
--x-x-12-x-12-x-x-x-12-12-12-12-x-12-12-12-|
-------------------------------------------|
-------------------------------------------|
-------------------------------------------|


   E  S S  E  S S  S  S  S  S  S  S  S  S  
------------------------------------------|
--10--x-x-10--x-x-10-10-10-10--x-10-10-10-|
--10--x-x-10--x-x-10-10-10-10--x-10-10-10-|
------------------------------------------|
------------------------------------------|
------------------------------------------|


  S S  S S  S S S S  S  S  S  S S  S  S  S  
------10-x-10-x-x-x-10-10-10-10-x-10-10-10-|
--x-x-10-x-10-x-x-x-10-10-10-10-x-10-10-10-|
--x-x-10-x-10-x-x-x-10-10-10-10-x-10-10-10-|
-------------------------------------------|
-------------------------------------------|
-------------------------------------------|


   E  S S  E  S S  S  S  S  S S  S  S  S  
-----------------------------------------|
--11--x-x-11--x-x-11-11-11-11-x-11-11-11-|
--12--x-x-12--x-x-12-12-12-12-x-12-12-12-|
-----------------------------------------|
-----------------------------------------|
-----------------------------------------|


  S S  S S  S S S S  S  S  S  S S  S  S  S  
-------------------------------------------|
--x-x-11-x-11-x-x-x-11-11-11-11-x-11-11-11-|
--x-x-12-x-12-x-x-x-12-12-12-12-x-12-12-12-|
-------------------------------------------|
-------------------------------------------|
-------------------------------------------|


   E  S S  E  S S  S  S  S  S  S  S  S  S  
------------------------------------------|
--10--x-x-10--x-x-10-10-10-10--x-10-10-10-|
--10--x-x-10--x-x-10-10-10-10--x-10-10-10-|
------------------------------------------|
------------------------------------------|
------------------------------------------|


  S S  S S  S S S S  S  S  S  S S  S  S  S    S S S S S S S S H         
------10-x-10-x-x-x-10-10-10-10-x-10-10-10-|---------------------------|
--x-x-10-x-10-x-x-x-10-10-10-10-x-10-10-10-|---------------------------|
--x-x-10-x-10-x-x-x-10-10-10-10-x-10-10-10-|--7-L-L-7-L-L-7-L----------|
-------------------------------------------|--5-L-L-5-L-L-5-L----------|
-------------------------------------------|--5-L-L-5-L-L-5-L----------|
-------------------------------------------|---------------------------|


  S S S S S S S S S S S S S S S S    S S S S E  E  S S S S S S S S  
----------------------------------|--------------------------------|
----------------------------------|--------------------------------|
--7-L-L-7-L---x-x-9-L-L-9-L-L-7-L-|--L-7-L-L-7-----x-x-x-x-x-x-x-x-|
--5-L-L-5-L---x-x-7-L-L-7-L-L-5-L-|--L-5-L-L-5-----x-x-x-x-x-x-x-x-|
--5-L-L-5-L---x-x-7-L-L-7-L-L-5-L-|--L-5-L-L-5-----x-x-x-x-x-x-x-x-|
----------------------------------|--------------------------------|


  S S S S S S S S S S S S S S S S    S S S S S S S S H         
----------------------------------|---------------------------|
----------------------------------|---------------------------|
--7-L-L-7-L---x-x-9-L-L-9-L-L-9-L-|--7-L-L-7-L-L-7-L----------|
--5-L-L-5-L---x-x-7-L-L-7-L-L-7-L-|--5-L-L-5-L-L-5-L----------|
--5-L-L-5-L---x-x-7-L-L-7-L-L-7-L-|--5-L-L-5-L-L-5-L----------|
----------------------------------|---------------------------|


  S S S S S S S S S S S S S S S S    S S S S E  E  S S S S S S S S  
----------------------------------|--------------------------------|
----------------------------------|--------------------------------|
--7-L-L-7-L---x-x-9-L-L-9-L-L-7-L-|--L-7-L-L-7-----x-x-x-x-x-x-x-x-|
--5-L-L-5-L---x-x-7-L-L-7-L-L-5-L-|--L-5-L-L-5-----x-x-x-x-x-x-x-x-|
--5-L-L-5-L---x-x-7-L-L-7-L-L-5-L-|--L-5-L-L-5-----x-x-x-x-x-x-x-x-|
----------------------------------|--------------------------------|


  S S S S S S S S S S S S S S S S    E  S S S S E  E  S S S S S S  
----------------------------------|--x--x-x-x-x----x--x-x-x-x-x-x-|
----------------------------------|--x--x-x-x-x----x--x-x-x-x-x-x-|
--7-L-L-7-L---x-x-9---------------|-------------------------------|
--5-L-L-5-L---x-x-7---------------|-------------------------------|
--5-L-L-5-L---x-x-7---------------|-------------------------------|
----------------------------------|-------------------------------|


  E   S  S  S  S S S Q     S  S E      E   E  S S S S E  E  S S S S  
--x--13-13-13-13-------------------|-------x--x-x-x-x----x--x-x-x-x-|
--x--15-15-15-15-------------------|-------x--x-x-x-x----x--x-x-x-x-|
--------------------------14-15----|--14\---------------------------|
-----------------------------------|--------------------------------|
-----------------------------------|--------------------------------|
-----------------------------------|--------------------------------|


  Q     S  S  S  S S S  S  S E   E      E  S S S S E  E  S S S S S S  
--x----13-13-13-13-------------------|--x--x-x-x-x----x--x-x-x-x-x-x-|
--x----15-15-15-15-------------------|--x--x-x-x-x----x--x-x-x-x-x-x-|
-----------------------14-15----14\--|-------------------------------|
-------------------------------------|-------------------------------|
-------------------------------------|-------------------------------|
-------------------------------------|-------------------------------|


  E   S  S  S  S S S Q     S  S E      E   E  S S S S E  E  S S S S  
--x--13-13-13-13-------------------|-------x--x-x-x-x----x--x-x-x-x-|
--x--15-15-15-15-------------------|-------x--x-x-x-x----x--x-x-x-x-|
--------------------------14-15----|--14\---------------------------|
-----------------------------------|--------------------------------|
-----------------------------------|--------------------------------|
-----------------------------------|--------------------------------|


  Q     S  S  S  S S S  S  S E   E      E  S S S S E  E  S S S S S S  
--x----13-13-13-13-------------------|--x--x-x-x-x----x--x-x-x-x-x-x-|
--x----15-15-15-15-------------------|--x--x-x-x-x----x--x-x-x-x-x-x-|
-----------------------14-15----14\--|-------------------------------|
-------------------------------------|-------------------------------|
-------------------------------------|-------------------------------|
-------------------------------------|-------------------------------|


  E   S  S  S  S S S Q     S  S E      E   E  S S S S E  E  S S S S  
--x--13-13-13-13-------------------|-------x--x-x-x-x----x--x-x-x-x-|
--x--15-15-15-15-------------------|-------x--x-x-x-x----x--x-x-x-x-|
--------------------------14-15----|--14\---------------------------|
-----------------------------------|--------------------------------|
-----------------------------------|--------------------------------|
-----------------------------------|--------------------------------|


  Q     S  S  S  S S S  S  S E   E      E  S S S S E  E  S S S S S S  
--x----13-13-13-13-------------------|--x--x-x-x-x----x--x-x-x-x-x-x-|
--x----15-15-15-15-------------------|--x--x-x-x-x----x--x-x-x-x-x-x-|
-----------------------14-15----14\--|-------------------------------|
-------------------------------------|-------------------------------|
-------------------------------------|-------------------------------|
-------------------------------------|-------------------------------|


  E   S  S  S  S S S Q     S  S E      E   E  S S S S E  E  S S S S  
--x--13-13-13-13-------------------|-------x--x-x-x-x----x--x-x-x-x-|
--x--15-15-15-15-------------------|-------x--x-x-x-x----x--x-x-x-x-|
--------------------------14-15----|--14\---------------------------|
-----------------------------------|--------------------------------|
-----------------------------------|--------------------------------|
-----------------------------------|--------------------------------|


   E  E   E  E   E  E   E  E      E  S  E  S  E.   S  S  S  S  S  S  S  
--13-----13-----13-----13-----|--10----10-----8----8--8--8--8--8--8--8-|
--15-----15-----15-----15-----|--11----11----10---10-10-10-10-10-10-10-|
------------------------------|----------------------------------------|
------------------------------|----------------------------------------|
------------------------------|----------------------------------------|
------------------------------|----------------------------------------|


   E  S  E  S  E.   S  S  S  S  S  S  S  
--10----10-----8----8--8--8--8--8--8--8-|
--11----11----10---10-10-10-10-10-10-10-|
----------------------------------------|
----------------------------------------|
----------------------------------------|
----------------------------------------|


   E  S  E  S  E.   S  S  S  S  S  S  S  
--13----13----13---13-13-13-13-13-13-13-|
--15----15----15---15-15-15-15-15-15-15-|
----------------------------------------|
----------------------------------------|
----------------------------------------|
----------------------------------------|


   E  S  E  S  E.   S  S  S  S  S  S  S  
--13----13----13---13-13-13-13-13-13-13-|
--15----15----15---15-15-15-15-15-15-15-|
----------------------------------------|
----------------------------------------|
----------------------------------------|
----------------------------------------|


   E  S  E  S  E.   S  S  S  S  S  S  S  
--10----10-----8----8--8--8--8--8--8--8-|
--11----11----10---10-10-10-10-10-10-10-|
----------------------------------------|
----------------------------------------|
----------------------------------------|
----------------------------------------|


   E  S  E  S  E.   S  S  S  S  S  S  S  
--10----10-----8----8--8--8--8--8--8--8-|
--11----11----10---10-10-10-10-10-10-10-|
----------------------------------------|
----------------------------------------|
----------------------------------------|
----------------------------------------|


   E  S  E  S  E.   S  S  S  S  S  S  S  
--13----13----13---13-13-13-13-13-13-13-|
--15----15----15---15-15-15-15-15-15-15-|
----------------------------------------|
----------------------------------------|
----------------------------------------|
----------------------------------------|


   E  S  E  S  E.   S  S  S  S  S  S  S  
--13----13----13---13-13-13-13-13-13-13-|
--15----15----15---15-15-15-15-15-15-15-|
----------------------------------------|
----------------------------------------|
----------------------------------------|
----------------------------------------|


   E  S  E  S  E.   S  S  S  S  S  S  S  
--10----10-----8----8--8--8--8--8--8--8-|
--11----11----10---10-10-10-10-10-10-10-|
----------------------------------------|
----------------------------------------|
----------------------------------------|
----------------------------------------|


   E  S  E  S  E.   S  S  S  S  S  S  S     E  S  E  S E.  S S S S S S S  
--10----10-----8----8--8--8--8--8--8--8-|---8-----8----6---6-6-6-6-6-6-6-|
--11----11----10---10-10-10-10-10-10-10-|--10----10----8---8-8-8-8-8-8-8-|
----------------------------------------|--------------------------------|
----------------------------------------|--------------------------------|
----------------------------------------|--------------------------------|
----------------------------------------|--------------------------------|


   E  S  E  S E.  S S S S S S S     E  S  E  S  E.   S  S  S  S  S  S  S  
---8-----8----6---6-6-6-6-6-6-6-|--10----10-----8----8--8--8--8--8--8--8-|
--10----10----8---8-8-8-8-8-8-8-|--11----11----10---10-10-10-10-10-10-10-|
--------------------------------|----------------------------------------|
--------------------------------|----------------------------------------|
--------------------------------|----------------------------------------|
--------------------------------|----------------------------------------|


   E  S  E  S  E.   S  S  S  S  S  S  S     E  S  E  S E.  S S S S S S S  
--10----10-----8----8--8--8--8--8--8--8-|---8-----8----6---6-6-6-6-6-6-6-|
--11----11----10---10-10-10-10-10-10-10-|--10----10----8---8-8-8-8-8-8-8-|
----------------------------------------|--------------------------------|
----------------------------------------|--------------------------------|
----------------------------------------|--------------------------------|
----------------------------------------|--------------------------------|


   E  S  E  S E.  S S S S S S S    W                   W                 
---8-----8----6---6-6-6-6-6-6-6-|-------------------|-------------------|
--10----10----8---8-8-8-8-8-8-8-|--6----------------|--L----------------|
--------------------------------|-------------------|-------------------|
--------------------------------|-------------------|-------------------|
--------------------------------|-------------------|-------------------|
--------------------------------|-------------------|-------------------|


   W                    W                    E  E  E  S S H         
--------------------|---------------------|------------------------|
--10----------------|---Lb----------------|-----------6-6-6--------|
--------------------|---------------------|------------------------|
--------------------|---------------------|------------------------|
--------------------|---------------------|------------------------|
--------------------|---------------------|------------------------|


  E  E  E  S S H           W                   E  E  E  E  E  E   E  E   
-----------8-8-8--------|--5----------------|--L--L--L--6--L--5\--L--L--|
--L--L--L---------------|-------------------|---------------------------|
------------------------|-------------------|---------------------------|
------------------------|-------------------|---------------------------|
------------------------|-------------------|---------------------------|
------------------------|-------------------|---------------------------|


   Q     Q     Q     Q        Q     E   E   Q     Q     
--------------10----------|----------------17----------|
--------11----------11----|--------15------------15----|
--12----------------------|--15--------15--------------|
--------------------------|----------------------------|
--------------------------|----------------------------|
--------------------------|----------------------------|


   Q     Q     Q     Q        Q     Q     E    E    E   E   
--10----------10----------|--------15----17s--18s--17--13--|
--------11----------11----|--------------------------------|
--------------------------|--------------------------------|
--------------------------|--15----------------------------|
--------------------------|--------------------------------|
--------------------------|--------------------------------|


   E   E   E   E   Q     Q        Q     E   E   Q     Q     
---L---L------13--10----------|----------------17----------|
----------11------------11----|--------15------------15----|
------------------------------|--15--------15--------------|
------------------------------|----------------------------|
------------------------------|----------------------------|
------------------------------|----------------------------|


   Q     Q     Q     Q        Q     Q     H         
--10----------10----------|--------15----17--------|
--------11----------11----|------------------------|
--------------------------|------------------------|
--------------------------|--15--------------------|
--------------------------|------------------------|
--------------------------|------------------------|


     Q     Q     Q     Q        Q     E   E   Q     Q     
|---------------10----------|----------------17----------|
|---------11----------11----|--------15------------15----|
|*--12----------------------|--15--------15--------------|
|*--------------------------|----------------------------|
|---------------------------|----------------------------|
|---------------------------|----------------------------|


   Q     Q     Q     Q        Q     Q     E    E    E   E   
--10----------10----------|--------15----17s--18s--17--13--|
--------11----------11----|--------------------------------|
--------------------------|--------------------------------|
--------------------------|--15----------------------------|
--------------------------|--------------------------------|
--------------------------|--------------------------------|


   E   E   E   E   Q     Q        Q     E   E   Q     Q     
---L---L------13--10----------|----------------17----------|
----------11------------11----|--------15------------15----|
------------------------------|--15--------15--------------|
------------------------------|----------------------------|
------------------------------|----------------------------|
------------------------------|----------------------------|


   Q     Q     Q     Q        Q     Q     H           
--10----------10----------|--------15----17---------||
--------11----------11----|-------------------------||
--------------------------|------------------------*||
--------------------------|--15--------------------*||
--------------------------|-------------------------||
--------------------------|-------------------------||


  E.  E.  Q     S  S  E   E     E.  E.  Q     S  S  S  S E   
---------------13-10-----10--|---------------------17-18----|
---------------------13------|---------------15-18----------|
-----------------------------|------------------------------|
-----------------------------|------------------------------|
-----------------------------|------------------------------|
-----------------------------|------------------------------|


  E.  E.  Q     S  S  E    E      Q    Q.      S S  S S  E   
---------------------13--------|----------------------------|
---------------13-15-----(15)--|------------------------10--|
-------------------------------|--------------10-0-10-0-----|
-------------------------------|----------------------------|
-------------------------------|----------------------------|
-------------------------------|----------------------------|


  E.  E.  Q     S  S  E   E     E.  E.  Q     S  S  S  S E   
---------------13-10-----10--|---------------------17-18----|
---------------------13------|---------------15-18----------|
-----------------------------|------------------------------|
-----------------------------|------------------------------|
-----------------------------|------------------------------|
-----------------------------|------------------------------|


  E.  E.  Q     S  S  E    E      Q    Q.      S S  S S  E   
---------------------13--------|----------------------------|
---------------13-15-----(15)--|------------------------10--|
-------------------------------|--------------10-0-10-0-----|
-------------------------------|----------------------------|
-------------------------------|----------------------------|
-------------------------------|----------------------------|


  E.  E.  Q     S  S  E   E     E.  E.  Q     S  S  S  S E   
---------------13-10-----10--|---------------------17-18----|
---------------------13------|---------------15-18----------|
-----------------------------|------------------------------|
-----------------------------|------------------------------|
-----------------------------|------------------------------|
-----------------------------|------------------------------|


  E.  E.  Q     S  S  E    E      Q    Q.      S S  S S  E   
---------------------13--------|----------------------------|
---------------13-15-----(15)--|------------------------10--|
-------------------------------|--------------10-0-10-0-----|
-------------------------------|----------------------------|
-------------------------------|----------------------------|
-------------------------------|----------------------------|


  E.  E.  Q     S  S  E   E     E.  E.  Q     S  S  S  S E   
---------------13-10-----10--|---------------------17-18----|
---------------------13------|---------------15-18----------|
-----------------------------|------------------------------|
-----------------------------|------------------------------|
-----------------------------|------------------------------|
-----------------------------|------------------------------|


  E.  E.  Q     S  S  E    E      Q    Q.      S S  S S  E   
---------------------13--------|----------------------------|
---------------13-15-----(15)--|------------------------10--|
-------------------------------|--------------10-0-10-0-----|
-------------------------------|----------------------------|
-------------------------------|----------------------------|
-------------------------------|----------------------------|


   Some sort of phaser/delay effect here                                        
   S                                     S  S  S  S  S  S  S  S  S  S  S  S  S  
--12------------------------------------12-12-10-10-10-12-12-10-10-12-12-------1


   S  S  S  S  S  S  S  S  S  S  S  S  S  S  S  S  
--------------------------------------------------|
--------------------------------------11-11-------|
--12-12-12-10-10-10-12-12-10-10-12-12-------12-12-|
--------------------------------------------------|
--------------------------------------------------|
--------------------------------------------------|


   S  S  S  S  S  S  S  S  S  S  S  S  S  S  S  S  
--------------------------------------------------|
--------------------------------------11-11-------|
--12-12-12-10-10-10-12-12-10-10-12-12-------12-12-|
--------------------------------------------------|
--------------------------------------------------|
--------------------------------------------------|


   S  S  S  S  S  S  S  S  S  S  S  S  S  S  S  S  
--------------------------10-10-------------------|
--------------------------------13-13-11-11-------|
--12-12-12-10-10-10-12-12-------------------12-12-|
--------------------------------------------------|
--------------------------------------------------|
--------------------------------------------------|


   S  S  S  S  S  S  S  S  S  S  S  S  S  S  S  S  
--------------------------------------------------|
--------------------------------------11-11-------|
--12-12-12-10-10-10-12-12-10-10-12-12-------12-12-|
--------------------------------------------------|
--------------------------------------------------|
--------------------------------------------------|


   S  S  S  S  S  S  S  S  S  S  S  S  S  S  S  S  
--------------------------------------------------|
--------------------------------------11-11-------|
--12-12-12-10-10-10-12-12-10-10-12-12-------12-12-|
--------------------------------------------------|
--------------------------------------------------|
--------------------------------------------------|


   S  S  S  S  S  S  S  S  S  S  S  S  S  S  S  S  
--------------------------------------------------|
--------------------------------------11-11-------|
--12-12-12-10-10-10-12-12-10-10-12-12-------12-12-|
--------------------------------------------------|
--------------------------------------------------|
--------------------------------------------------|


   S  S  S  S  S  S  S  S  S  S  S  S  S  S  S  S  
--------------------------------------------13-13-|
--------------------------------11-11-13-13-------|
--12-12-12-10-10-10-12-12-12-12-------------------|
--------------------------------------------------|
--------------------------------------------------|
--------------------------------------------------|


   S  S  S  S  S  S  S  S  S  S  S  S  S  S  S  S  
--------------------------------------------------|
--------------------------------------11-11-------|
--12-12-12-10-10-10-12-12-10-10-12-12-------12-12-|
--------------------------------------------------|
--------------------------------------------------|
--------------------------------------------------|


   S  S  S  S  S  S  S  S  S  S  S  S  S  S  S  S  
--------------------------------------------------|
--------------------------------------11-11-------|
--12-12-12-10-10-10-12-12-10-10-12-12-------12-12-|
--------------------------------------------------|
--------------------------------------------------|
--------------------------------------------------|


   S  S  S  S  S  S  S  S  S  S  S  S  S  S  S  S  
--------------------------------------------------|
--------------------------------------11-11-------|
--12-12-12-10-10-10-12-12-10-10-12-12-------12-12-|
--------------------------------------------------|
--------------------------------------------------|
--------------------------------------------------|


   S  S  S  S  S  S  S  S  S  S  S  S  S  S  S  S  
--------------------------10-10-------------------|
--------------------------------13-13-11-11-------|
--12-12-12-10-10-10-12-12-------------------12-12-|
--------------------------------------------------|
--------------------------------------------------|
--------------------------------------------------|


   S  S  S  S  S  S  S  S  S  S  S  S  S  S  S  S  
--------------------------10-10-------------------|
--------------------------------13-13-11-11-------|
--12-12-12-10-10-10-12-12-------------------12-12-|
--------------------------------------------------|
--------------------------------------------------|
--------------------------------------------------|


   S  S  S  S  S  S  S  S  S  S  S  S  S  S  S  S  
--------------------------------------------------|
--------------------------------------11-11-------|
--12-12-12-10-10-10-12-12-10-10-12-12-------12-12-|
--------------------------------------------------|
--------------------------------------------------|
--------------------------------------------------|


   S  S  S  S  S  S  S  S  S  S  S  S  S  S  S  S  
--------------------------------------------------|
--------------------------------------11-11-------|
--12-12-12-10-10-10-12-12-10-10-12-12-------12-12-|
--------------------------------------------------|
--------------------------------------------------|
--------------------------------------------------|


   E  E   E  E   E  E   E  E      E  S  E  S  E.   S  S  S  S  S  S  S  
--13-----13-----13-----13-----|--10----10-----8----8--8--8--8--8--8--8-|
--15-----15-----15-----15-----|--11----11----10---10-10-10-10-10-10-10-|
------------------------------|----------------------------------------|
------------------------------|----------------------------------------|
------------------------------|----------------------------------------|
------------------------------|----------------------------------------|


   E  S  E  S  E.   S  S  S  S  S  S  S  
--10----10-----8----8--8--8--8--8--8--8-|
--11----11----10---10-10-10-10-10-10-10-|
----------------------------------------|
----------------------------------------|
----------------------------------------|
----------------------------------------|


   E  S  E  S  E.   S  S  S  S  S  S  S  
--13----13----13---13-13-13-13-13-13-13-|
--15----15----15---15-15-15-15-15-15-15-|
----------------------------------------|
----------------------------------------|
----------------------------------------|
----------------------------------------|


   E  S  E  S  E.   S  S  S  S  S  S  S  
--13----13----13---13-13-13-13-13-13-13-|
--15----15----15---15-15-15-15-15-15-15-|
----------------------------------------|
----------------------------------------|
----------------------------------------|
----------------------------------------|


   E  S  E  S  E.   S  S  S  S  S  S  S  
--10----10-----8----8--8--8--8--8--8--8-|
--11----11----10---10-10-10-10-10-10-10-|
----------------------------------------|
----------------------------------------|
----------------------------------------|
----------------------------------------|


   E  S  E  S  E.   S  S  S  S  S  S  S  
--10----10-----8----8--8--8--8--8--8--8-|
--11----11----10---10-10-10-10-10-10-10-|
----------------------------------------|
----------------------------------------|
----------------------------------------|
----------------------------------------|


   E  S  E  S  E.   S  S  S  S  S  S  S  
--13----13----13---13-13-13-13-13-13-13-|
--15----15----15---15-15-15-15-15-15-15-|
----------------------------------------|
----------------------------------------|
----------------------------------------|
----------------------------------------|


   E  S  E  S  E.   S  S  S  S  S  S  S  
--13----13----13---13-13-13-13-13-13-13-|
--15----15----15---15-15-15-15-15-15-15-|
----------------------------------------|
----------------------------------------|
----------------------------------------|
----------------------------------------|


   E  S  E  S  E.   S  S  S  S  S  S  S  
--10----10-----8----8--8--8--8--8--8--8-|
--11----11----10---10-10-10-10-10-10-10-|
----------------------------------------|
----------------------------------------|
----------------------------------------|
----------------------------------------|


   E  S  E  S  E.   S  S  S  S  S  S  S     E  S  E  S E.  S S S S S S S  
--10----10-----8----8--8--8--8--8--8--8-|---8-----8----6---6-6-6-6-6-6-6-|
--11----11----10---10-10-10-10-10-10-10-|--10----10----8---8-8-8-8-8-8-8-|
----------------------------------------|--------------------------------|
----------------------------------------|--------------------------------|
----------------------------------------|--------------------------------|
----------------------------------------|--------------------------------|


   E  S  E  S E.  S S S S S S S     E  S  E  S  E.   S  S  S  S  S  S  S  
---8-----8----6---6-6-6-6-6-6-6-|--10----10-----8----8--8--8--8--8--8--8-|
--10----10----8---8-8-8-8-8-8-8-|--11----11----10---10-10-10-10-10-10-10-|
--------------------------------|----------------------------------------|
--------------------------------|----------------------------------------|
--------------------------------|----------------------------------------|
--------------------------------|----------------------------------------|


   E  S  E  S  E.   S  S  S  S  S  S  S     E  S  E  S E.  S S S S S S S  
--10----10-----8----8--8--8--8--8--8--8-|---8-----8----6---6-6-6-6-6-6-6-|
--11----11----10---10-10-10-10-10-10-10-|--10----10----8---8-8-8-8-8-8-8-|
----------------------------------------|--------------------------------|
----------------------------------------|--------------------------------|
----------------------------------------|--------------------------------|
----------------------------------------|--------------------------------|


   E  S  E  S E.  S S S S S S S    W                   W                 
---8-----8----6---6-6-6-6-6-6-6-|-------------------|-------------------|
--10----10----8---8-8-8-8-8-8-8-|--6----------------|--L----------------|
--------------------------------|-------------------|-------------------|
--------------------------------|-------------------|-------------------|
--------------------------------|-------------------|-------------------|
--------------------------------|-------------------|-------------------|


   W                    W                    E  E  E  S S H         
--------------------|---------------------|------------------------|
--10----------------|---Lb----------------|-----------6-6-6--------|
--------------------|---------------------|------------------------|
--------------------|---------------------|------------------------|
--------------------|---------------------|------------------------|
--------------------|---------------------|------------------------|


  E  E  E  S S H           W                   E  E  E  E  E  E   E  E   
-----------8-8-8--------|--5----------------|--L--L--L--6--L--5\--L--L--|
--L--L--L---------------|-------------------|---------------------------|
------------------------|-------------------|---------------------------|
------------------------|-------------------|---------------------------|
------------------------|-------------------|---------------------------|
------------------------|-------------------|---------------------------|


   Q     Q     Q     Q        Q     E   E   Q     Q     
--------------10----------|----------------17----------|
--------11----------11----|--------15------------15----|
--12----------------------|--15--------15--------------|
--------------------------|----------------------------|
--------------------------|----------------------------|
--------------------------|----------------------------|


   Q     Q     Q     Q        Q     Q     E    E    E   E   
--10----------10----------|--------15----17s--18s--17--13--|
--------11----------11----|--------------------------------|
--------------------------|--------------------------------|
--------------------------|--15----------------------------|
--------------------------|--------------------------------|
--------------------------|--------------------------------|


   E   E   E   E   Q     Q        Q     E   E   Q     Q     
---L---L------13--10----------|----------------17----------|
----------11------------11----|--------15------------15----|
------------------------------|--15--------15--------------|
------------------------------|----------------------------|
------------------------------|----------------------------|
------------------------------|----------------------------|


   Q     Q     Q     Q        Q     Q     H         
--10----------10----------|--------15----17--------|
--------11----------11----|------------------------|
--------------------------|------------------------|
--------------------------|--15--------------------|
--------------------------|------------------------|
--------------------------|------------------------|


     Q     Q     Q     Q        Q     E   E   Q     Q     
|---------------10----------|----------------17----------|
|---------11----------11----|--------15------------15----|
|*--12----------------------|--15--------15--------------|
|*--------------------------|----------------------------|
|---------------------------|----------------------------|
|---------------------------|----------------------------|


   Q     Q     Q     Q        Q     Q     E    E    E   E   
--10----------10----------|--------15----17s--18s--17--13--|
--------11----------11----|--------------------------------|
--------------------------|--------------------------------|
--------------------------|--15----------------------------|
--------------------------|--------------------------------|
--------------------------|--------------------------------|


   E   E   E   E   Q     Q        Q     E   E   Q     Q     
---L---L------13--10----------|----------------17----------|
----------11------------11----|--------15------------15----|
------------------------------|--15--------15--------------|
------------------------------|----------------------------|
------------------------------|----------------------------|
------------------------------|----------------------------|


   Q     Q     Q     Q        Q     Q     H                       
--10----------10----------|--------15----17---------||-----------|
--------11----------11----|-------------------------||-----------|
--------------------------|------------------------*||-----------|
--------------------------|--15--------------------*||-----------|
--------------------------|-------------------------||-----------|
--------------------------|-------------------------||-----------|


  H         H            W                    W                 
-----------10--------|--------------------|--------------------|
---------------------|--11----------------|--13----------------|
---------------------|--------------------|--------------------|
---------------------|--------------------|--------------------|
---------------------|--------------------|--------------------|
---------------------|--------------------|--------------------|


   W                     H         H            W                 
--17b----------------|---L--------10--------|--------------------|
---------------------|----------------------|--11----------------|
---------------------|----------------------|--------------------|
---------------------|----------------------|--------------------|
---------------------|----------------------|--------------------|
---------------------|----------------------|--------------------|


   W                   Q     Q     Q     Q       Q     Q     Q     Q     
--------------------|-------------------17----|-------------------17----|
--13----------------|-------15----------------|-------15----------------|
--------------------|-------------15----------|-------------15----------|
--------------------|-------------------------|-------------------------|
--------------------|-------------------------|-------------------------|
--------------------|-------------------------|-------------------------|


  Q     Q     Q     Q       Q     Q     Q     Q       Q     Q     Q     Q     
-------------------17----|-------------------17----|-------------------17----|
-------15----------------|-------15----------------|-------15----------------|
-------------15----------|-------------15----------|-------------15----------|
-------------------------|-------------------------|-------------------------|
-------------------------|-------------------------|-------------------------|
-------------------------|-------------------------|-------------------------|


  Q     Q     Q     Q       Q     Q     Q     Q       Q     Q     Q     Q     
-------------------17----|-------------------17----|-------------------17----|
-------15----------------|-------15----------------|-------15----------------|
-------------15----------|-------------15----------|-------------15----------|
-------------------------|-------------------------|-------------------------|
-------------------------|-------------------------|-------------------------|
-------------------------|-------------------------|-------------------------|


   W                     W                  
---------------------|--------------------||
---------------------|--------------------||
--15~----------------|---L----------------||
---------------------|--------------------||
---------------------|--------------------||
---------------------|--------------------||



Left Guitar
                                               
E||-------|-------|-------|---------------------------------|-------|-------|
B||-------|-------|-------|---------------------------------|-------|-------|
G||-------|-------|-------|-----x-x-x-x-x-x-x-x-x-x-x-x-x-x-|-------|-------|
D||-------|-------|-------|-----x-x-x-x-x-x-x-x-x-x-x-x-x-x-|-------|-------|
A||-------|-------|-------|-----x-x-x-x-x-x-x-x-x-x-x-x-x-x-|-------|-------|
D||-------|-------|-------|-----x-x-x-x-x-x-x-x-x-x-x-x-x-x-|-------|-------|


                           ^                                     
          Q    Q    Q      Q       E  S S E  S S S S S S S S E   
-------|-------------------6----|-------------------------------|
-------|-------------------6----|-------------------------------|
-------|-----------------<>7----|---------3--x-x-5-5-5-7-x-x----|
-------|------------------------|--5--x-x----x-x---------x-x-5--|
-------|------------------------|-----x-x----x-x---------x-x----|
-------|------------------------|-----x-x-----------------------|


  E  E  E  S S E  S S E  S S     E  S S E  S S S S S S S S  E   
-----------------------------|---------------------------------|
-----------------------------|---------------------------------|
---------------5--x-x-7--x-x-|--10--x-x-8--x-x-7-7-7-7-x-x-10--|
-----5--8--5-L---------------|---------------------------------|
-----------------------------|---------------------------------|
-------------L---------------|---------------------------------|


  S S E  S S E  S  S  E  E  E     E  S S E  S S S S S S S S E   
-------------------------------|-------------------------------|
------8------------------------|-------------------------------|
--x-x----x-x-7--5s-7s-5--3--0--|---------3--x-x-5-5-5-7-x-x----|
-------------------------------|--5--x-x----x-x---------x-x-5--|
-------------------------------|-----x-x----x-x---------x-x----|
-------------------------------|-----x-x-----------------------|


  E  E  E  S S E  S S E  S S     E  S S E  S S S S S S S S  S  S  
-----------------------------|-----------------------------------|
-----------------------------|-----------------------------------|
---------------5--x-x-7--x-x-|--10--x-x-8--x-x-7-7-7-7-x-x-10-10-|
-----5--8--5-L---------------|-----------------------------------|
-----------------------------|-----------------------------------|
-------------L---------------|-----------------------------------|


  S S E  S S E  Q    E  E      W                 
---------------------------|--------------------|
------8--------------------|--------------------|
--x-x----x-x-8--7-------0--|--12----------------|
---------------------8-----|--------------------|
---------------------------|--10----------------|
---------------------------|--------------------|


   E   S  S  S  S  S  S  Q     Q       W                 
------------------------------------|-------------------|
------------------------------------|-------------------|
---L--10--L--L-12--L--L-14----10----|--7----------------|
------------------------------------|-------------------|
---L---8--L--L-10--L--L-12-----8----|--5----------------|
------------------------------------|-------------------|


   E  S  S  S S  S  S  Q    Q        W                 
---------------------------------|--------------------|
---------------------------------|--------------------|
---L--5--L--L-7--L--L-10----7----|--12----------------|
---------------------------------|--------------------|
---L--3--L--L-5--L--L--8----5----|--10----------------|
---------------------------------|--------------------|


   E   S  S  S  S  S  S  Q     Q        W                 
------------------------------------|--------------------|
------------------------------------|--------------------|
---L--10--L--L-12--L--L-14----12----|--19----------------|
------------------------------------|--------------------|
---L---8--L--L-10--L--L-12----10----|--17----------------|
------------------------------------|--------------------|


                                                                       ^     
   H         S   E.   S   E.                          Q    Q    Q      Q     
------------------------------|------|------|------|-------------------6----|
------------------------------|------|------|------|-------------------6----|
---L--------------------------|------|------|------|-----------------<>7----|
------------17s-19---15s-17---|------|------|------|------------------------|
---L--------------------------|------|------|------|------------------------|
------------------------------|------|------|------|------------------------|


  W                   W                   W                 
-------------------|-------------------|-------------------|
-------------------|-------------------|-------------------|
-------------------|-------------------|-------------------|
--5----------------|--L----------------|--L----------------|
--5----------------|--L----------------|--L----------------|
--5----------------|--L----------------|--L----------------|


                  ^                                      
  H        Q      Q       E  S S S S S S S S S S S S E   
------------------6----|--------------------------------|
------------------6----|--------------------------------|
----------------<>7----|--------------------------------|
--L--------5-----------|--3--------------3-x-x-3-x-x-5--|
--L--------5-----------|-----5-5-3-3-5-5----------------|
--L--------5-----------|--------------------------------|


  S S S S S S S S E  S S S S E     S S S S E  S S E  S S S S S S  
--------------------------------|--------------------------------|
--------------------------------|--------------------------------|
--------------------------------|--------------------------------|
--x-x-5-5-3-3-5-5-7--x-x-x-x-5--|--x-x-x-x-3------3--------------|
--------------------------------|-------------5-5----5-5-3-3-5-5-|
--------------------------------|--------------------------------|


  E  S S S S S S E  S S S S S S    E  E  S S S S S S S S S S E   
--------------------------------|-------------------------------|
--------------------------------|-------------------------------|
--------------------------------|-------------------------------|
--3--------------3--------------|-----3----------3-x-x-3-x-x-5--|
-----5-5-3-3-5-5----5-5-3-3-5-L-|--L-----3-3-5-5----------------|
--------------------------------|-------------------------------|


  S S S S S S S S E  S S S S E     S S S S E  S S E  S S S S S S  
--------------------------------|--------------------------------|
--------------------------------|--------------------------------|
--------------------------------|--------------------------------|
--x-x-5-5-3-3-5-5-7--x-x-x-x-5--|--x-x-x-x-3------3--------------|
--------------------------------|-------------5-5----5-5-3-3-5-5-|
--------------------------------|--------------------------------|


  E  S S S S S S E  S S S S S S    E  S S S S S S S S S S S S E   
--------------------------------|--------------------------------|
--------------------------------|--------------------------------|
--------------------------------|--------------------------------|
--3--------------3--------------|--3--------------3-x-x-3-x-x-5--|
-----5-5-3-3-5-5----5-5-3-3-5-5-|-----5-5-3-3-5-5----------------|
--------------------------------|--------------------------------|


  S S S S S S S S E  S S S S E     S S S S E  S S E  S S S S S S  
--------------------------------|--------------------------------|
--------------------------------|--------------------------------|
--------------------------------|--------------------------------|
--x-x-5-5-3-3-5-5-7--x-x-x-x-5--|--x-x-x-x-3------3--------------|
--------------------------------|-------------5-5----5-5-3-3-5-5-|
--------------------------------|--------------------------------|


  E  S S S S S S E  S S S S S S    E  E  S S S S S S S S S S E   
--------------------------------|-------------------------------|
--------------------------------|-------------------------------|
--------------------------------|-------------------------------|
--3--------------3--------------|-----3----------3-x-x-3-x-x-5--|
-----5-5-3-3-5-5----5-5-3-3-5-L-|--L-----3-3-5-5----------------|
--------------------------------|-------------------------------|


  S S S S S S S S E  S S S S E     S S S S E  S S E  S S S S S S  
--------------------------------|--------------------------------|
--------------------------------|--------------------------------|
--------------------------------|--------------------------------|
--x-x-5-5-3-3-5-5-7--x-x-x-x-5--|--x-x-x-x-3------3--------------|
--------------------------------|-------------5-5----5-5-3-3-5-5-|
--------------------------------|--------------------------------|


                            PM  PM  PM PM  PM  PM    PM  PM  PM PM  PM  PM  
  E  E  E  E  Q    Q        E.  E.  E  E.  E.  E     E.  E.  E  E.  E.  E   
-------------------------|------------------------|------------------------|
-------------------------|--8----------8----------|--8----------8----------|
-------------------------|------7---5------7---5--|------7---5------7---5--|
--5-----5-----5----3/----|------------------------|------------------------|
-------------------------|------------------------|------------------------|
--5-----5-----5----------|------------------------|------------------------|


  PM  PM  PM PM  PM  PM    PM  PM  PM PM  PM  PM    PM  PM  PM PM  PM  PM  
  E.  E.  E  E.  E.  E     E.  E.  E  E.  E.  E     E.  E.  E  E.  E.  E   
------------------------|------------------------|------------------------|
--6----------6----------|--6----------6----------|--8----------8----------|
------7---5------7---5--|------7---5------7---5--|------7---5------7---5--|
------------------------|------------------------|------------------------|
------------------------|------------------------|------------------------|
------------------------|------------------------|------------------------|


  PM  PM  PM PM  PM  PM    PM  PM  PM PM  PM  PM    PM  PM  PM PM   PM   PM  
  E.  E.  E  E.  E.  E     E.  E.  E  E.  E.  E     E.  E.  E  E.   E.   E   
------------------------|------------------------|--------------------------|
--8----------8----------|--6----------6----------|--6-----------------------|
------7---5------7---5--|------7---5------7---5--|------7---5--2s---3s---2--|
------------------------|------------------------|--------------------------|
------------------------|------------------------|--------------------------|
------------------------|------------------------|--------------------------|


  PM  PM  PM PM  PM  PM    PM  PM  PM PM  PM  PM    PM  PM  PM PM  PM  PM  
  E.  E.  E  E.  E.  E     E.  E.  E  E.  E.  E     E.  E.  E  E.  E.  E   
------------------------|------------------------|------------------------|
--8----------8----------|--8---------------------|--6----------6----------|
------7---5------7---5--|------7---5--2---3---2--|------7---5------7---5--|
------------------------|------------------------|------------------------|
------------------------|------------------------|------------------------|
------------------------|------------------------|------------------------|


  PM  PM  PM PM   PM   PM    PM  PM  PM PM  PM  PM    PM  PM  PM PM  PM  PM  
  E.  E.  E  E.   E.   E     E.  E.  E  E.  E.  E     E.  E.  E  E.  E.  E   
--------------------------|------------------------|------------------------|
--6-----------------------|--8----------8----------|--8---------------------|
------7---5--2s---3s---2--|------7---5------7---5--|------7---5--2---3---2--|
--------------------------|------------------------|------------------------|
--------------------------|------------------------|------------------------|
--------------------------|------------------------|------------------------|


  PM  PM  PM PM  PM  PM    PM  PM  PM                               
  E.  E.  E  E.  E.  E     E.  E.  E  H           W                 
------------------------|----------------------|-------------------|
--6----------6----------|--6----------6--------|--8----------------|
------7---5------7---5--|------7---5-----------|--8----------------|
------------------------|----------------------|-------------------|
------------------------|----------------------|-------------------|
------------------------|----------------------|-------------------|


  H        E   E  E  E      W                   W                 
------------------------|--------------------|-------------------|
--L--------x--11--x-----|--10----------------|--L----------------|
--L--------x--12--x-----|--10----------------|--L----------------|
------------------------|--------------------|-------------------|
------------------------|--------------------|-------------------|
------------------------|--------------------|-------------------|


  W                   Q    Q    Q    E   S  S  
-------------------|--------------------------|
--L----------------|--------------------10-10-|
--L----------------|--------------------------|
-------------------|--------------------------|
-------------------|--------------------------|
-------------------|--------------------------|


   S  S  S  S  S  S  S  S  S  S  S  S  S  S  S  S  
--------------------------------------------------|
--10-10-10-10-10-10-10-10-10-10-10-10-10-10-10-10-|
--------------------------------------------------|
--------------------------------------------------|
--------------------------------------------------|
--------------------------------------------------|


   S  S  S  S  S  S  S  S  S  S  S  S  S   S  S  S     E   E   E   H        E   
---------------------------------------------------|----------17---------------|
--10-11-11-11-11-11-11-11-11-11-11-11-11\--L--L--L-|--------------18-----------|
---------------------------------------------------|------15-------------------|
---------------------------------------------------|--15-----------------------|
---------------------------------------------------|---------------------------|
---------------------------------------------------|---------------------------|


   E   E   E   H        E      E   E   E   H        E   
----------15--17-----------|----------17---------------|
------15-------------------|--------------18-----------|
--15-----------------------|------15-------------------|
---------------------------|--15-----------------------|
---------------------------|---------------------------|
---------------------------|---------------------------|


   E   E   E   H        E      E   E   E   H        E   
----------15--17-----------|----------17---------------|
------15-------------------|--------------18-----------|
--15-----------------------|------15-------------------|
---------------------------|--15-----------------------|
---------------------------|---------------------------|
---------------------------|---------------------------|


   E   E   E   H        E      E   E   E   H        E   
----------15--17-----------|----------17---------------|
------15-------------------|--------------18-----------|
--15-----------------------|------15-------------------|
---------------------------|--15-----------------------|
---------------------------|---------------------------|
---------------------------|---------------------------|


  E  E  E  E  E  E  E  E       E  E  E  E  E  E  E  E   
--------------------------||---------------------------|
--------------------------||---------------------------|
--7--7--7--7--7--7--7--7--||*--8--8--8--8--L--8--8--8--|
--7--7--7--7--7--7--7--7--||*--8--8--8--8--L--8--8--8--|
--5--5--5--5--5--5--5--5--||---6--6--6--6--L--6--6--6--|
--------------------------||---------------------------|


   E   E   E   E  E   E   E   E      E   E   E   E  E   E   E   E   
---------------------------------|---------------------------------|
---------------------------------|---------------------------------|
--12--12--12--12--L--12--12--12--|--10--10--10--10--L--10--10--10--|
--12--12--12--12--L--12--12--12--|--10--10--10--10--L--10--10--10--|
--10--10--10--10--L--10--10--10--|---8---8---8---8--L---8---8---8--|
---------------------------------|---------------------------------|


  E  E  E  E  E  E  E  E     E  E  E  E  E  E  E  E   
--------------------------|--------------------------|
--------------------------|--------------------------|
--7--7--7--7--L--7--5--7--|--5--3--3-----------------|
--7--7--7--7--L--7--5--7--|--------------------------|
--5--5--5--5--L--5--3--5--|--3--1--1-----5--5--5--5--|
--------------------------|-----------5--5--5--5--3--|


  E  E  E  E  E  E  E  E     E  E  E  E  E  E  E  E   
--------------------------|--------------------------|
--------------------------|--------------------------|
--5--3--------------------|--------------------------|
--------------------------|--------------------------|
--3--1--5--5--5--5--5--5--|--3--3--3--3--L--3--3--3--|
--------5--5--5--5--5--5--|--3--3--3--3--L--3--3--3--|


  E  E  E  E  E  E  E  E        E  S  E  S  E  E  S S S S S S  
---------------------------||---------------------------------|
---------------------------||---------------------------------|
--------------------------*||--12----10----12-----x-x-x-x-x-x-|
--------------------------*||--12----10----12-----x-x-x-x-x-x-|
--0--0--0--0--L--0--0--0---||--10-----8----10-----x-x-x-x-x-x-|
--0--0--0--0--L--0--0--0---||---------------------x-x-x-x-x-x-|


   E  S  E  S  E  E  S S S S E     E.  E.  Q    S S S S E   
--------------------------------|--------------------------|
--------------------------------|--------------------------|
--12----10----12-----x-x-x-x----|--------------------------|
--12----10----12-----x-x-x-x-8--|--7---8----------------8--|
--10-----8----10-----x-x-x-x----|----------8----x-x-x-x----|
---------------------x-x-x-x----|--------------------------|


  E.  E.  Q    S S S S S S     E  S  E  S  E  E  S S S S S S  
---------------------------|---------------------------------|
---------------------------|---------------------------------|
---------------x-x-x-x-x-x-|--12----10----12-----x-x-x-x-x-x-|
--7---8--------x-x-x-x-x-x-|--12----10----12-----x-x-x-x-x-x-|
----------8----x-x-x-x-x-x-|--10-----8----10-----x-x-x-x-x-x-|
---------------------------|---------------------x-x-x-x-x-x-|


   E  S  E  S  E  E  S S S S    E     H         H            H         Q     Q     
-----------------------------|----------------------|-----------------------|
-----------------------------|----------------------|-----------------------|
--12----10----12-----x-x-x-x-|----------------------|-----------------------|
--12----10----12-----x-x-x-x-|--7\------------------|-----------------------|
--10-----8----10-----x-x-x-x-|-----------8\---------|--5\--------3\---------|
---------------------x-x-x-x-|-------------------|-----------------------|


   E  S  E  S  E  E  S S S S S S     E  S  E  S  E  E  S S S S S S  
---------------------------------|---------------------------------|
---------------------------------|---------------------------------|
--12----10----12-----x-x-x-x-x-x-|--12----10----12-----x-x-x-x-x-x-|
--12----10----12-----x-x-x-x-x-x-|--12----10----12-----x-x-x-x-x-x-|
---------------------x-x-x-x-x-x-|---------------------x-x-x-x-x-x-|
---------------------x-x-x-x-x-x-|---------------------x-x-x-x-x-x-|


   S  S  S  S  S  S  S  S  S  S  S  S  S  S  S  S  
--------------------------------------------------|
--10-10-10-10-10-10-10-10-------------------------|
--------------------------10-10-10-10-10-10-10-10-|
--------------------------------------------------|
--------------------------------------------------|
--------------------------------------------------|


   S  S  S  S  S  S  S  S  S  S  S  S  S  S S S  
------------------------------------------------|
------------------------------------------------|
------------------------------------------------|
--12-12-12-12-12-12-12-12-10-10-10-10-10-10-----|
------------------------------------------------|
------------------------------------------------|


   E  S  E  S  E  E  S S S S S S     E  S  E  S  E  E  S S S S S S  
---------------------------------|---------------------------------|
---------------------------------|---------------------------------|
--12----10----12-----x-x-x-x-x-x-|--12----10----12-----x-x-x-x-x-x-|
--12----10----12-----x-x-x-x-x-x-|--12----10----12-----x-x-x-x-x-x-|
---------------------x-x-x-x-x-x-|---------------------x-x-x-x-x-x-|
---------------------x-x-x-x-x-x-|---------------------x-x-x-x-x-x-|


   S  S  S  S  S  S  S  S  S  S  S  S  S  S  S  S  
--------------------------------------------------|
--10-10-10-10-10-10-10-10-------------------------|
--------------------------10-10-10-10-10-10-10-10-|
--------------------------------------------------|
--------------------------------------------------|
--------------------------------------------------|


   S  S  S  S  S  S  S  S  S  S  S  S  S  S S S  
------------------------------------------------|
------------------------------------------------|
------------------------------------------------|
--12-12-12-12-12-12-12-12-12-12-12-12-12-12-----|
------------------------------------------------|
------------------------------------------------|


  E   S  S  S  S  S  S  S  S  S  S  S  S  S  S  
-----15-15-15-15-15-15-15-15-15-15-15-15-15-15-|
-----------------------------------------------|
-----------------------------------------------|
-----------------------------------------------|
-----------------------------------------------|
-----------------------------------------------|


   S  S  S  S  S  S  S  S  S  S  S  S  S  S  E      E.   E.   E   E.   E.   E   
--15-15-15-15-15-15-15-15-15-15-15-15-15-15-18--|--18---17---17--17------------|
----------------------





Comments


Popular Dance Gavin Dance tabs & chords
Burning Down The Nicotine Armoire Bass Tabs
Lemon Meringue Tie Bass Tabs
Open Your Eyes And Look North Bass Tabs
Attack Of The Dashing Young And Bold 1 Tabs
Carl Barker Intro Tabs
Don't Tell Dave Tabs
Elder Goose Intro Tabs
Rock Solid Tabs
The Robot With Human Hair Part 2 Intro Tabs
Uneasy Hearts Weigh The Most Intro Tabs


Song lyrics



↑ Back to top | Tablatures and chords are parodies/interpretations of the original songs. You may use it for private study, scholarship, research or language learning purposes only
© 2014 AZChords.com Contact us | Privacy policy | DMCA | Add/correct tabs | Request tabs | Top 50 tabs