» » »

Attack Of The Dashing Young And Bold Bass tabs (ver.1)

Artists:  A B C D E F G H I J K L M N O P Q R S T U V W X Y Z # 

Attack Of The Dashing Young And Bold Bass tabs (ver.1)

Dance Gavin Dance
Rating:
5/5 (3 votes)

Hard to play? Try these video lessons and learn fast.
                -------------------------------------------------------------------------------
-------------------------------------------------------------------------------


Tuning: DADG


intro...

G|---------------------------------------------------------------------------|
D|---------------------------------------------------------------------------|
A|---33-33-33-33-33333---------------------------X4--------------------------|
D|---------------------55-55-55-55-52222-------------------------------------|

G|-------------------------|
D|-------------------------|
A|-------------------------|
D|----5~-------------------|

'And When you'

G|---------------------------------------------------|
D|--------------------------------------------------- 
A|------------3333333333333333--X2-------------------|   
D|-2~------------------------------------------------|


G|---------------------------------------------------|
D|---------------------------------------------------|
A|------------33-33-33-33--3333--X2------------------|
D|-2~------------------------------------------------|


G|---------------------------------------------------------------------------|
D|---------------------------------------------------------------------------|
A|--------------------------------3-3-------------x2-------------------------|
E|-2-2-2---2-2-2---5-5-5---5-5-5---------------------------------------------|

G|---------------------------------------------------------------------------|
D|---------------------------------------------------------------------------|
A|---------------------------------3-3-3-3-3-3---FIG PATTERN--X2------|
D|--5~---------------5-5-5-5-5-5---------------------------------------------|

G|---------------------------------------------------------------------------|
D|---------------------------------------------------------------------------|
A|------------------3-3-3-3-3-3-3--------------3-3-3-3-3-3-3---PATTERN IS EZ-|
D|---5-5-5-5-5-5-5----------------2-2-2-2-2-2--------------------------------|

'The path you chosen...'

G|---------------------------------------------------------------------------|
D|---------------------------------------------------------------------------|
A|------------------3-3-3-3-3-3-3--------------3-3-3-3-3-3-3-INTRO PATTERN|
D|---5-5-5-5-5-5-5----------------2-2-2-2-2-2--------------------------------|

'Its time to think of my different plan...'

G|---------------------------------------------------|
D|--------------------------------------------------- 
A|------------3333333333333333--X2-------------------|   
D|-2~------------------------------------------------|

G|---------------------------------------------------|
D|---------------------------------------------------|
A|------------33-33-33-33--3333--X2------------------|
D|-2~------------------------------------------------|

'You, you cant be..'

G|---------------------------------------------------------------------------|
D|---------------------------------------------------------------------------|
A|---------------------------------------------------------------------------|
D|-2-2-2--------2-2-2----5-5-5--2-2-2----2-2-2--5-5-5--2--2--2---------------|

So Girl Just fight it...

G|---------------------------------------------------------------------------|
D|---------------------------------------------------------------------------|
A|---------------------------------------------------------------------------|
D|-2-2-2--------2-2-2----2-2-2-----------2~----------------------------------|

G|---------------------------------------------------------------------------|
D|---------------------------------------------------------------------------|
A|---33-33-33-33-33333---------------------------X4--------------------------|
D|---------------------55-55-55-55-55555-------------------------------------|

'The Path you've chosen..'

G|---------------------------------------------------------------------------|
D|---------------------------------------------------------------------------|
A|------------------3-3-3-3-3-3-3--------------3-3-3-3-3-3-3---X1------------|
D|---5-5-5-5-5-5-5----------------2-2-2-2-2-2--------------------------------|


G|---------------------------------------------------------------------------|
D|---------------------------------------------------------------------------|
A|------------------3-3-3-3-3-3-3--------------3-3-3-3-3-3-3-INTRO PATTERN|
D|---5-5-5-5-5-5-5----------------2-2-2-2-2-2--------------------------------|

Solo'd Bass Part

G|---------------------------------------------------------------------------|
D|---------------------------------------------------------------------------|
A|-------------------------------3-3-3-----------------3-3-3-3-3-3-3-5-5-x2--|
D|---5-5-5-5-5-5-5-5-5-5-5-5-5-5-------2-2-2-2-2-2-2-2-----------------------|

Slight Different Pattern this time

G|---------------------------------------------------------------------------|
D|---------------------------------------------------------------------------|
A|-------------------------------3-3-3-----------------3-3-3-3-3-3-3-5-5-x2--| 
D|---5-5-5-5-5-5-5-5-5-5-5-5-5-5-------2-2-2-2-2-2-2-2-----------------------|

G|---------------------------------------------------------------------------|
D|---------------------------------------------------------------------------|
A|-------------------------333-333-33-333-333-33-x2--------------------------|
D|--2-2-2-2-2--2-2-2-2-2-----------------------------------------------------|

'Dont Roll your eyes...'

G|---------------------------------------------------------------------------|
D|---------------------------------------------------------------------------|
A|---33-33-33-33-33333---------------------------X4--------------------------|
D|---------------------55-55-55-55-52222-------------------------------------|

Outro....

G|---------------------------------------------------------------------------|
D|---------------------------------------------------------------------------|
A|---33-33-33-33-33333---------------------------X4--------------------------|
D|---------------------55-55-55-55-52222-------------------------------------|

G|---------------------------------------------------------------------------|
D|---------------------------------------------------------------------------|
A|---------------------------------------------------------------------------|
E|----2~---------------------------------------------------------------------|


***************************************
| /  slide up
| \  slide down
| h  hammer-on
| p  pull-off
| ~  vibrato
| +  harmonic
| x  Mute note
===============================================================================
            
Hard to play? Try these video lessons and learn fast. | Correct




comments powered by Disqus
↑ Back to top | Tablatures and chords are parodies/interpretations of the original songs. You may use it for private study, scholarship, research or language learning purposes only