» » »

Dance Gavin Dance, Attack Of The Dashing Young And Bold Tabs (ver.1)

Artists:  A B C D E F G H I J K L M N O P Q R S T U V W X Y Z # 

Attack Of The Dashing Young And Bold Tabs (ver.1)

Dance Gavin Dance Tabs
Rating:
4/5 (3 votes)
Attack Of The Dashing Young And Bold lessons Tabs too difficult? Try these video lessons and learn fast
                                        This is my first tab ever

This song was released with their Demo along with another song that has somethign 
to do with vietnam haha can't remember the name anyways it's an amazing song so I 
figured I would try to tab it so yea anyways I'm working on the rest of the song 
at the moment so Ill post it when I get it done!!!
well anyways here it is....Oh this tab is in standard but if anyone has any 
I'd be more than happy to look it over a revise the tablature for you!!
(there are two guitar parts but this is the only one I've got so far!)

Guitar 2(rythm)
                         V ^ V ^            V ^                 (x4)
e|-------------------------------------------------------------| 
b|-------------------------------------------------------------|
g|---6-6--6-6--6-6--6-6--6-6-6-6--2-2--2-2--2-2----------------|
D|---4-4--4-4--4-4--4-4--4-4-4-4--2-2--2-2--2-2----------------|
A|---5-5--5-5--5-5--5-5--5-5-5-5--0-0--0-0--0-0--4-4--4-4-4-4--|
E|-----------------------------------------------2-2--2-2-2-2--|

Then a little break will occur and one guitar plays this...
                                                 (x2)
e|---------------------------------------------| 
b|-------------(7)-(7)---------------(7)-------|
g|---------------(7)-(7)---------------(7)-----|
D|-------4---------------------4---------(7)---|
A|-----5---5-----------------5---5-------------|
E|---3---------------------3-------------------|


e|--------------------| (x2)
b|--------------------|
g|-----------7-----7--|
D|-------4-----4------|
A|-----5---5-----5----|
E|---3----------------|


Verse
e|--------------------------------------------------------------|
b|--------------------------------------------------------------|
g|-------------------------------------7-----7----------7-----7-|
D|---------44-----------44---------4-----4----------4-----4-----|
A|------55----55-----55----55----5---5-----5------5---5-----5---|
E|---33-----------33-----------3----------------3---------------|

Repeat above x2 then play this...

e|--------------------------------------------------------------|
b|--------------------------------------------------------------|
g|--6-6--6-6--6-6--7-7--7-7-7----------7-----7----------7-----7-|
D|--4-4--4-4--4-4--4-4--4-4-4------4-----4----------4-----4-----|
A|--5-5--5-5--5-5--5-5--5-5-5----5---5-----5------5---5-----5---|
E|-----------------------------3----------------3---------------|


Chorus:
e|-------------------------------------------------------------------|
b|----------8--8--8----------8--8--8---------------------------------|
g|----------11-11-11---------11-11-11--------------------------------|
D|---5-5-5------------5-5-5------------10-10-10--xxxxxxxx--10-10-10--|
A|---5-5-5------------5-5-5------------10-10-10--xxxxxxxx--10-10-10--|
E|---3-3-3------------3-3-3------------8--8--8---xxxxxxxx--8--8--8---|

e|------------------------------| \
b|--------12-12-12--------------|  \
g|--------15-15-15--------------|   \
D|------------------------------|   / end of chorus
A|------------------------------|  /
E|------------------------------| /


e|--------------------------------------------------------------------|
b|------------(7)-(7)-------------(7)---------------------------------|
g|--------------(7)-(7)-------------(7)-------------------------------|
D|-------4-------------------4--------(7)-----------------------------|
A|-----5---5---------------5---5--------------------------------------|
E|---3-------------------3--------------------------------------------|


e|------------------------------------------------|
b|---8--8---8--8---8--8---8--8---8--8---8--8------|
g|---11-11--11-11--11-11--11-11--11-11--11-11-----|
D|------------------------------------------------|
A|------------------------------------------------|
E|------------------------------------------------\
   (Riff a)^   (Riff B)V                           \
e|------------------------------------------------| \(x2)   order(aB aB)
b|---13-13--13-13--13-13--13-13--13-13--13-13-----| /
g|---16-16--16-16--16-16--16-16--16-16--16-16-----|/
D|------------------------------------------------|
A|------------------------------------------------|
E|------------------------------------------------|

e|-------------------------------------------------------------------|(x2)
b|--10--10--10--10--10--10--10--10--15--15--15--15--15--15--15--15---|
g|----11--11--11--11--11--11--11--11--11--11--11--11--11--11--11-----|
D|-------------------------------------------------------------------|
A|-------------------------------------------------------------------|
E|-------------------------------------------------------------------|

()= natural harmonics


I'm having a few problems gettign the rest but ill get it as soon as possible!!

any questions just comment or message me!! Thanks!!
            

comments powered by Disqus
↑ Back to top | Dance Gavin Dance Tabs for Attack Of The Dashing Young And Bold. Lyrics for acoustic guitar and electric guitar. Tablatures and chords are parodies/interpretations of the original songs. You may use it for private study, scholarship, research or language learning purposes only