>
 >
Breathing New Life

Breathing New Life Guitar Tabs

Damageplan - Breathing New Life chords, tabs, tablatures, lyrics

Guitar lessons | Add/correct | Request | Top 50 tabs Artists:  A B C D E F G H I J K L M N O P Q R S T U V W X Y Z 0-9

Breathing New Life Guitar Tabs – Damageplan

CD, Sheet music, Poster

Do you like Breathing New Life? Share with your friends now
Bass TabsTabsTabs v2Tabs v3Tabs v4
Band- Damageplan
Song- Breathing New Life

Gtr I (Db Gb B E Ab Db) - 'Dime'
Gtr II (Db Gb B E Ab Db) - 'Extra dubbed rhythm guitar'

 Intro
  Heavy Fucking Metal Q=128
                 G5 Ab5F5Gb5E5 F5  G5 Ab5F5Gb5E5 F5
 4/4            2/2
  Gtr I
  Wx3            E. E. E E. E. E   E. E. E E. E. E
|------------||------------------|-----------------|
|------------||o-----------------|-----------------|
|------------||------------------|-----------------|
|------------||--5--6--3-4--2--3-|-5--6--3-4--2--3-|
|------------||o-5--6--3-4--2--3-|-5--6--3-4--2--3-|
|------------||--3--4--1-2--0--1-|-3--4--1-2--0--1-|


  G5 Ab5F5Gb5E5 F5    G5 Ab5F5Gb5A5 Bb5
  E. E. E E. E. E     E. E. E E. E. E
|-------------------|--------------------||
|-------------------|-------------------o||
|-------------------|------------2--3----||
|-5--6--3-4--2--3---|-5--6--3-4--2--3----||
|-5--6--3-4--2--3---|-5--6--3-4--0--1---o||
|-3--4--1-2--0--1---|-3--4--1-2----------||
|
| Gtr II
| W                   W
|-------------------|--------------------||
|-------------------|-------------------o||
|-------------------|--------------------||
|-------------------|--------------------||
|-------------------|-------------------o||
|-------------------|--------------------||


     Buildup
  Accel Q=130
  $
      N.C.          A#/G
     4/4
                         ~~~
      H     +E  E E E   +W
|-||------------------|------------------|
|-||o-----------------|------------------|
|-||----------------3-|-(3)--------------|
|-||------------------|------------------|
|-||o-----------------|------------------|
|-||--0-----(0)-2-3-3-|-(3)--------------|
|
|     PM-----------------------------|
|     Q  Q   E  E Q      E  E E E Q  Q
|-||------------------|------------------|
|-||o-----------------|------------------|
|-||------------------|------------------|
|-||------------------|------------------|
|-||o-----------------|------------------|
|-||--0--0---0--2-3---|--3--3-3-3-3--3---|


  1.
  N.C.            A#/G        A#m
                       ~~~~~~~~~~~~~~~~~~~
  H       +E  E E E   +Q.      H      +E
|-------------------|----------------------||
|-------------------|---------------------o||
|-----------------3-|-(3)-----/6------(6)--||
|-------------------|----------------------||
|-------------------|---------------------o||
|-0-------(0)-2-3-3-|-(3)-----/6------(6)--||
|
| PM-----------------------------------------
| E E E E  E  E Q      E  E E  Q  Q.
|-------------------|----------------------||
|-------------------|---------------------o||
|-------------------|----------------------||
|-------------------|----------------------||
|-------------------|---------------------o||
|-0-0-0-0--0--2-3---|--3--3-3--6--6--------||


 2.
  N.C.            A#/G            A#m    N.C.
                                   ~~~
  H       +E  E E E   +E   E   E   Q.     Q
|-------------------|--------------------------||
|-------------------|--------------------------||
|-----------------3-|-(3)------3--/6-----------||
|-------------------|------5-------------------||
|-------------------|--------------------------||
|-0-------(0)-2-3-3-|-(3)-(3)-(3)-/6-----12\---||
|
|----------------------------------------|
| E E E E  E  E Q      E   E   E   Q   E  Q
|-------------------|--------------------------||
|-------------------|--------------------------||
|-------------------|--------------------------||
|-------------------|--------------------------||
|-------------------|---------------------7\---||
|-0-0-0-0--0--2-3---|--3---3---3---6---6-------||


   Verse
                                              1.
    N.C.(E)             E5F#G5       A#5/F     (E)                 E5F#G5
    PM------------|                  ~~        PM------------|
    S S S S S S S S  E  E E E   +Q   H.        S S S S S S S S  E  E E E
||----------------------------|--------------|----------------------------|
||o---------------------------|--------------|----------------------------|
||----------------------------|------3-------|----------------------------|
||----------------------------|------3-------|----------------------------|
||o---------------------2-4-5-|-(5)----------|---------------------2-4-5--|
||--0-0-0-0-0-0-0-0-12\-0-2-3-|-(3)----------|-0-0-0-0-0-0-0-0-12\-0-2-3--|


                         2.
      A#G5A#5 G#sus4      (E)                 E5F#G5      A#G5A#5 G#sus4
              ~           PM------------|                         ~~
  +E  E E  Q  Q  +E       S S S S S S S S  E  E E E   +E  E E  Q  Q.
|----------------------||---------------------------|------------------||
|---------------------o||---------------------------|------------------||
|-----3-------6--(6)\--||---------------------------|-----3-------6----||
|-----3-------6--(6)\--||---------------------------|-----3-------6----||
|-(5)---5-/8----------o||---------------------2-4-5-|-(5)---5-/8-------||
|-(3)---3-/6-----------||-0-0-0-0-0-0-0-0-12\-0-2-3-|-(3)---3-/6-------||


   Pre-Chorus
    Lay back a bit Q=129
    $$
    E5    N.C.  (Bb)
                ~~~~~~~~
    q  q  E E E E   +Q   S S S S S S S S S S S S
||----------------|------------------------------|
||o---------------|------------------------------|
||--9--9----------|------------------------------|
||--9--9----------|------------------------------|
||o-7--7----5-----|------------------------------|
||--------7---7-6-|-(6)--6-6-6-6-6-6-6-6-6-6-6-6-|


 1.
  E5         N.C.
                   ~~~~~~~~~~    ~
  S S S S q  E E E E   +E  Q  Q  Q  E
|--------------------|-----------------||
|--------------------|----------------o||
|---------9----------|-----------------||
|-9-9-9-9-9----------|-----------------||
|-7-7-7-7-7----5-----|----------------o||
|------------7---7-6-|-(6)-3--0--3--0--||


                        Chorus
  2.
  E5         N.C.        G5 Ab5F5Gb5E5 F5  G5 Ab5F5Gb5E5 F5
  S S S S q   E E E E    E. E. E E. E. E   E. E. E E. E. E
|---------------------||-----------------|-----------------|
|---------------------||-----------------|-----------------|
|---------9-----------||-----------------|-----------------|
|-9-9-9-9-9-----------||-5--6--3-4--2--3-|-5--6--3-4--2--3-|
|-7-7-7-7-7-----5-----||-5--6--3-4--2--3-|-5--6--3-4--2--3-|
|------------/7---7---||-3--4--1-2--0--1-|-3--4--1-2--0--1-|


                              D.S.
                              D.S.
  G5 Ab5F5Gb5E5 F5  G5 Ab5F5Gb5A5 Bb5
  E. E. E E. E. E   E. E. E E. E. E
|-----------------|-----------------||
|-----------------|-----------------||
|-----------------|------------2--3-||
|-5--6--3-4--2--3-|-5--6--3-4--2--3-||
|-5--6--3-4--2--3-|-5--6--3-4--0--1-||
|-3--4--1-2--0--1-|-3--4--1-2-------||


  Accel Q=132
  G5 Ab5F5Gb5E5 F5  G5 Ab5F5Gb5   F5  G5 Ab5F5Gb5E5 F5
 4/4
  E. E. E E. E. E   E. E. E E. E. E   E. E. E E. E. E
|-----------------|-----------------|-----------------|
|-----------------|-----------------|-----------------|
|-----------------|-----------------|-----------------|
|-5--6--3-4--2--3-|-5--6--3-4--2--3-|-5--6--3-4--2--3-|
|-5--6--3-4--2--3-|-5--6--3-4--2--3-|-5--6--3-4--2--3-|
|-3--4--1-2--0--1-|-3--4--1-2--0--1-|-3--4--1-2--0--1-|


                     Interlude
                  Slightly faster Q=133               1.
  G5 Ab5F5Gb5A5 Bb5   E5
                             ~~~~~~~~~~~~~~~~~              ~~~~
  E. E. E E. E. E     Q.     H     +E     +W           Q    H.
|-----------------||-------/24----(24)-|-(24)--------|----/24-----|
|-----------------||o------------------|-------------|------------|
|------------2--3-||--------/9-----(9)-|--(9)--------|-----/9-----|
|-5--6--3-4--2--3-||-------------------|-------------|------------|
|-5--6--3-4--0--1-||o-2----------------|-------------|-2----------|
|-3--4--1-2-------||--0----------------|-------------|-0----------|


                        2.
    ~~~~~~~~~~~~~~~~~         ~~~~~~~~~~~~~~~~~~~~~~
   +Q.     H     +E      Q    H.         +Q.     Q.    E     E
|-(24)---\19----(19)--||----/24-------|-(24)---\19-------------||
|--------------------o||--------------|------------------------||
|--(9)----\4-----(4)--||-----/9-------|--(9)----\4-------------||
|---------------------||--------------|---------------12b14----||
|--------------------o||-2------------|---------------------14-||
|---------------------||-0------------|------------------------||


 Guitar Solo
                 ~~
   Q       +E    Q   S      +S    E  E
|--------------------------------------|
|--------------------------------------|
|-12b13===(12)r-----12b13==(12)r-------|
|---------------14---------------14----|
|-----------------------------------14-|
|--------------------------------------|


                                                    |--3--|  |--3--|
   S      +S    E  E  S      +S    E  E  S  S  E    Q  Q  Q  Q  Q  Q
|------------------------------------------------|--------------------|
|------------------------------------------------|----------------17--|
|-12b13==(12)r-------12b13==(12)r----------------|----------15--------|
|--------------14-----------------14-------------|----14-------14-----|
|-----------------13-----------------12-10h12p10-|-------13-----------|
|------------------------------------------------|-12-----------------|


                                                  ~~
   |--3--|
   Q  Q  Q  e      +E    E     E    Q       +E    Q   S      +S    E  E
|----18----20b22==(20)r----------|--------------------------------------|
|-------17-----------------------|--------------------------------------|
|-15-----------------------------|-12b13===(12)r-----12b13==(12)r-------|
|-----------------------12b14----|---------------14---------------14----|
|-----------------------------14-|-----------------------------------14-|
|--------------------------------|--------------------------------------|


   S      +S    E  E  S      +S    E  E  S  S  E
|------------------------------------------------|
|------------------------------------------------|
|-12b13==(12)r-------12b13==(12)r----------------|
|--------------14-----------------14-------------|
|-----------------13-----------------12-10h12p10-|
|------------------------------------------------|


  Accel Q=135
   PM------------|
   S  S  S  S  S  S  S  S  S  S  S  S  S  S  S  S
|-------------------------------------------------|
|-------------------------------------------------|
|-------------------------------------16-17-16-17-|
|-------------------------14-15-14-15-------------|
|-------------13-14-13-14-------------------------|
|-12-13-12-13-------------------------------------|


                           |------6-------|  |------6-------|
   S  S  S  S  S  S  S  S  S  S  S  S  S  S  S  S  S  S  S  S
|-------------18-19-18-19-22-22-22-22-19-18-22-22-22-22-19-18---||
|-17-18-17-18---------------------------------------------------||
|---------------------------------------------------------------||
|---------------------------------------------------------------||
|---------------------------------------------------------------||
|---------------------------------------------------------------||


 Breakdown
                                              Slow a bit Q=131
                                                 E5       N.C.G5
 9/8                    6/4                     4/4
    Q.     Q.     Q.       Q.     H    H    E    H    +E  E E E
|----------------------|----------------------||----------------|
|----------------------|----------------------||----------------|
|----------------------|----------------------||----------------|
|----------------------|----------------------||-2----(2)-----5-|
|----------------------|----------------------||-2----(2)-----5-|
|-/15\---/15\---/15\---|-/15\---/15s===8s===1-||-0----(0)-0-2-3-|


        (A#5/F)      E5        N.C.G5      A#G5A#5
      PM  PM   PM      PM----|
  +E  E E Q  E E E   E E E E E E E E   +E  E E  Q  E E E
|------------------|-----------------|-------------------|
|------------------|-----------------|-------------------|
|-------3----3---3-|-----------------|-----3-------------|
|-(5)---3----3---3-|-2-------------5-|-(5)-3-------8-8-8-|
|-(5)--------------|-2-2-2-2-2-----5-|-(5)---5-/8--8-8-8-|
|-(3)-3---3----3---|-0-0-0-0-0-0-2-3-|-(3)---3-/6--6-6-6-|


                                                           D.S.S. al Coda
  E5        N.C.G5      (A#5/F)         E5        N.C.G5      A#G5A#5 G#sus4
    PM----|               PM|   PM        PM----|                     ~~
  E E E E E E E E   +E  E E E E E E E   E E E E E E E E   +E  E E  Q  Q.
|-----------------|-------------------|-----------------|-------------------||
|-----------------|-------------------|-----------------|-------------------||
|-----------------|-----3-----3---3-3-|-----------------|-----3-------6-----||
|-2-------------5-|-(5)-3-----3---3-3-|-2-------------5-|-(5)-3-------6-----||
|-2-2-2-2-2-----5-|-(5)---------------|-2-2-2-2-2-----5-|-(5)---5-/8--------||
|-0-0-0-0-0-0-2-3-|-(3)---3-3---3-----|-0-0-0-0-0-0-2-3-|-(3)---3-/6--------||


 Out-Chorus
  &
  G5 Ab5F5Gb5E5 F5  G5 Ab5F5Gb5E5 F5  G5 Ab5F5Gb5E5 F5
 2/2
  E. E. E E. E. E   E. E. E E. E. E   E. E. E E. E. E
|-----------------|-----------------|-----------------|
|-----------------|-----------------|-----------------|
|-----------------|-----------------|-----------------|
|-5--6--3-4--2--3-|-5--6--3-4--2--3-|-5--6--3-4--2--3-|
|-5--6--3-4--2--3-|-5--6--3-4--2--3-|-5--6--3-4--2--3-|
|-3--4--1-2--0--1-|-3--4--1-2--0--1-|-3--4--1-2--0--1-|


                  Slower Q=129
  G5 Ab5F5Gb5A5 Bb5   G5 Ab5F5Gb5E5 F5  G5 Ab5F5Gb5E5 F5
  E. E. E E. E. E     E. E. E E. E. E   E. E. E E. E. E
|-----------------||------------------|-----------------|
|-----------------||o-----------------|-----------------|
|------------2--3-||------------------|-----------------|
|-5--6--3-4--2--3-||--5--6--3-4--2--3-|-5--6--3-4--2--3-|
|-5--6--3-4--0--1-||o-5--6--3-4--2--3-|-5--6--3-4--2--3-|
|-3--4--1-2-------||--3--4--1-2--0--1-|-3--4--1-2--0--1-|


  G5 Ab5F5Gb5E5 F5  G5 Ab5F5Gb5A5 Bb5
  E. E. E E. E. E   E. E. E E. E. E  3x
|-----------------|------------------||
|-----------------|-----------------o||
|-----------------|------------2--3--||
|-5--6--3-4--2--3-|-5--6--3-4--2--3--||
|-5--6--3-4--2--3-|-5--6--3-4--0--1-o||
|-3--4--1-2--0--1-|-3--4--1-2--------||


  Gb5A5 BbGb5A5 Bb5 Gb5A5 Bb5
  E. E. E E. E. E   E. E. E H
|-----------------|--------------*|
|-----------------|--------------*|
|----2--3----2--3-|----2--3------*|
|-4--2--3-4--2--3-|-4--2--3------*|
|-4--0--1-4--0--1-|-4--0--1------*|
|-2-------2-------|-2------------*|


Duration Legend
---------------
W - whole; H - half; Q - quarter; E - 8th; S - 16th; T - 32nd; X - 64th; a - acciaccatura
+ - note tied to previous; . - note dotted; .. - note double dotted
Uncapitalized letters represent notes that are staccato (1/2 duration)
Irregular groupings are notated above the duration line
Duration letters will always appear directly above the note/fret number it represents the
duration for.  Duration letters with no fret number below them represent rests.  Multi-
bar rests are notated in the form Wxn, where n is the number of bars to rest for.  Low
melody durations appear below the staff

Tablature Legend
----------------
 h   - hammer-on
 p   - pull-off
 b   - bend
 pb  - pre-bend
 r   - bend release (if no number after the r, then release immediately)
 /\  - slide into or out of (from/to "nowhere")
 s   - legato slide
 S   - shift slide
  - natural harmonic
[n]  - artificial harmonic
n(n) - tapped harmonic
 ~   - vibrato
 tr  - trill
 T   - tap
 TP  - trem. picking
 PM  - palm muting
\n/  - tremolo bar dip; n = amount to dip
 \n  - tremolo bar down
 n/  - tremolo bar up
/n\  - tremolo bar inverted dip
 =   - hold bend; also acts as connecting device for hammers/pulls
 <>  - volume swell (louder/softer)
 x   - on rhythm slash represents muted slash
 o   - on rhythm slash represents single note slash

Misc Legend
-----------
 |  - bar
||  - double bar
||o - repeat start
o|| - repeat end
*|  - double bar (ending)
 :  - bar (freetime)
 $  - Segno
 &  - Coda
Tempo markers -  = BPM(8/16=s8/s16), where s8 = swing 8ths, s16 = swing 16ths


***************************************************************************************
***************************************************************************************





Comments


Popular Damageplan tabs & chords
Breathing New Life Bass Tabs
Pride Bass Tabs
Save Me Bass Tabs
Blink Of An Eye Tabs
Breathing New Life 2 Tabs
Breathing New Life 3 Tabs
Explode Tabs
Explode 1 Tabs
Soul Bleed Tabs
Wake Up 1 Tabs


Song lyrics



↑ Back to top | Tablatures and chords are parodies/interpretations of the original songs. You may use it for private study, scholarship, research or language learning purposes only
© 2014 AZChords.com Contact us | Privacy policy | DMCA | Add/correct tabs | Request tabs | Top 50 tabs