>
 >
Save Me

Save Me Guitar Tabs

Damageplan - Save Me chords, tabs, tablatures, lyrics

Guitar lessons | Add/correct | Request | Top 50 tabs Artists:  A B C D E F G H I J K L M N O P Q R S T U V W X Y Z 0-9

Save Me Guitar Tabs – Damageplan

CD, Sheet music, Poster

Do you like Save Me? Share with your friends now
Bass TabsTabs
this is a awesome song from damageplan so enjoy

all guitars are in dropped-D tuning down one and a half 
steps (low to high: B F# B E G# C#) or you can just use
dropped-D tuning or dropped-C tuning
(low to high:C G C F A D)!

intro:(0:00)
C#,D|---------------------|---------------------------------|
G#,A|---------------------|---------------------------------|
E,F |---------------------|---------------------------------|
B,C |---------------------|---------------------------------|
F#,G|--------------8b-----|-6--6-6-6-6--6-6-6-6-----8b------|
B ,C|--------------8b-----|-6--6-6-6-6--6-6-6-6-----8b------|

|---------------------------------|---------------------------------|
|---------------------------------|---------------------------------|
|---------------------------------|---------------------------------|
|---------------------------------|---------------------------------|
|-3--3-3-3-3--3-3-3-3-----8b------|-1--1-1-1-1--1-1-1-1-----8b------|
|-3--3-3-3-3--3-3-3-3-----8b------|-1--1-1-1-1--1-1-1-1-----8b------|

|---------------------------------|
|---------------------------------|
|---------------------------------|
|---------------------------------|
|-3--3-3-3-3--3-3-3-3-----8b------|
|-3--3-3-3-3--3-3-3-3-----8b------|

|--13--13-13-(13)--13-13-13-13-13-(13)-|
|--x---x--x--(x)---x--x--x--x--x--(x)--|
|--10--10-10-(10)--10-10-10-10-10-(10)-|
|--------------------------------------|
|--------------------------------------|
|--------------------------------------|

|--13--13-13-(13)--13-13-13-13-13-(13)-|
|--x---x--x--(x)---x--x--x--x--x--(x)--|
|--10--10-10-(10)--10-10-10-10-10-(10)-|
|--------------------------------------|
|--------------------------------------|
|--------------------------------------|

|--13-13--13-13-(13)--13-13-13-13-13-13-(13)-|
|--10-10--10-10-(10)--10-10-10-10-10-10-(10)-|
|--10-10--10-10-(10)--10-10-10-10-10-10-(10)-|
|--------------------------------------------|
|--------------------------------------------|
|--------------------------------------------|


Verses (0:16, 1:15)
1.save me  from          myself           I         call    out but
2.tensity              that grows        within          me       re-
|---------------------------------|---------------------------------|
|---------------------------------|---------------------------------|
|---------------------------------|---------------------------------|
|---------------------------------|---------------------------------|
|-3--1-3-1-3--(3)-1-3-1--3-----1--|-3--1-3--(3)-1-3-1-3--4-----0-0-1|
|-3--1-3-1-3--(3)-1-3-1--3-----1--|-3--1-3--(3)-1-3-1-3--4-----0-0-1|
light palm mute:....................................................

1.no one   hears      my    plea
2.flections of        my    pain
|---------------------------------|------------------------------------|
|---------------------------------|------------------------------------|
|---------------------------------|------------------------------------|
|---------------------------------|------------------------------------|
|-3--1-3-1-3--(3)-1-3-1--3-----1--|-3--1-3--(3)-1-3-1--3--x--x-x-x-/12-|
|-3--1-3-1-3--(3)-1-3-1--3-----1--|-3--1-3--(3)-1-3-1--3--x--x-x-x-/12-|
light palm mute:..................................................

{Burn my   candle           fast       from      both  ends
{Nightmares grow     from   dreams
{I'll create            
{way it's always in       veins         destroy           but either
|---------------------------------|----------------------------------|
|---------------------------------|----------------------------------|
|---------------------------------|----------------------------------|
|---------------------------------|----------------------------------|
|-3--1-3-1-3--(3)-1-3-1--3-----1--|-3--1-3--(3)-1-3-1-3--4--4--0-0-1-|
|-3--1-3-1-3--(3)-1-3-1--3-----1--|-3--1-3--(3)-1-3-1-3--4--4--0-0-1-|

pre-chorus:guitar 3 (elec. w/ dist. and whammy pedal)(0:33,1:33)
1. You      don't    know      you    can't see through my eyes so
2. you      don't    know              me
3. You      don't    know              what's going through my mind but
|---------------------------|---------------------------|
|--13-(13)\--12-(12)\--11---|----------13---(13)-(13)---|
|.--------------------------|--------------------------.|
|.--------------------------|--------------------------.|   play 3 times 
|---------------------------|---------------------------|
|---------------------------|---------------------------|
1.
2.
3.can       you          help            me
|---------------------------|---------------------------|
|-13-(13)\--12-(12)\--11----|----------13---(13)-(13)---|
|---------------------------|---------------------------|
|---------------------------|---------------------------|
|---------------------------|---------------------------|
|---------------------------|---------------------------|
|
|
|
|
| Guitar 1
|---------------------------|---------------------------------|
|---------------------------|---------------------------------|
|.--------------------------|--------------------------------.|
|.--------------------------|--------------------------------.| play 3 times
|--x-x-x-x----x-x-x-x-------|-x-x----x----x---3-----4--0-0-1--|
|--x-x-x-x----x-x-x-x-------|-x-x----x----x---3-----4--0-0-1--|

|---------------------------|---------------------------|
|---------------------------|---------------------------|
|---------------------------|---------------------------|
|---------------------------|---------------------------|
|---x--x--x--x---x--x--x--x-|---x--x--x--x---3--4--8b---|
|---x--x--x--x---x--x--x--x-|---x--x--x--x---3--4--8b---|
|
| Guitar 2
|---------------------------|---------------------------------|
|---------------------------|---------------------------------|
|.--------------------------|--------------------------------.|
|.--------------------------|--------------------------------.| play 3 times
|--x-----x-x-x-----x--------|-x---x-x-x-------3-----4--0---1--|
|--x-----x-x-x-----x--------|-x---x-x-x-------3-----4--0---1--|

|---------------------------|----------------------------|
|---------------------------|----------------------------|
|---------------------------|----------------------------|
|---------------------------|----------------------------|
|---x----x--x--x-----x------|---x--x--x------3--4---8B---|
|---x----x--x--x-----x------|---x--x--x------3--4---8B---|

Chorus:(0:51,1:50,2:23)
  save               me        from myself                  Did you
|---------------------------------|---------------------------------|
|---------------------------------|---------------------------------|
|---------------------------------|---------------------------------|
|---------------------------------|---------------------------------|
|-6--6-6-6-6--6-6-6-6-----8b------|-3--3-3-3-3--3-3-3-3-----8b------|
|-6--6-6-6-6--6-6-6-6-----8b------|-3--3-3-3-3--3-3-3-3-----8b------|
 ever     really                 care
|---------------------------------|---------------------------------|
|---------------------------------|---------------------------------|
|---------------------------------|---------------------------------|
|---------------------------------|---------------------------------|
|-1--1-1-1-1--1-1-1-1-----8b------|-3--3-3-3-3--3-3-3-3-----8b------|
|-1--1-1-1-1--1-1-1-1-----8b------|-3--3-3-3-3--3-3-3-3-----8b------|

  save               me        from myself                  
|---------------------------------|---------------------------------|
|---------------------------------|---------------------------------|
|---------------------------------|---------------------------------|
|---------------------------------|---------------------------------|
|-6--6-6-6-6--6-6-6-6-----8b------|-3--3-3-3-3--3-3-3-3-----8b------|
|-6--6-6-6-6--6-6-6-6-----8b------|-3--3-3-3-3--3-3-3-3-----8b------|

 
  tell me    your not     scared
|---------------------------------|
|---------------------------------|
|---------------------------------|
|---------------------------------|
|-1--1-1-1-1--1-1-1-1-----8b------|
|-1--1-1-1-1--1-1-1-1-----8b------|

  guitars 1 and 2
|---------------------------------|---------------------------------|
|---------------------------------|---------------------------------|
|---------------------------------|---------------------------------|
|---------------------------------|---------------------------------|
|-3--1-3-1-3--(3)-1-3-1--3-----1--|-3--1-3--(3)-1-3-1-3--4-----0-0-1|
|-3--1-3-1-3--(3)-1-3-1--3-----1--|-3--1-3--(3)-1-3-1-3--4-----0-0-1|
| light palm mute:....................................................
|
| guitar 3 (wah off)
|---------------------------------|---------------------------------|
|---------------------------------|---------------------------------|
|---------------------------------|---------------------------------|
|---------------------------------|---------------------------------|
|-x--x-x-x--x--x--x-x-x-x-x-x--x-x|-x--x-x---x--x-x-x-x--x-----x-x-x|
|-x--x-x-x--x--x--x-x-x-x-x-x--x-x|-x--x-x---x--x-x-x-x--x-----x-x-x|


|---------------------------------|------------------------------------|
|---------------------------------|------------------------------------|
|---------------------------------|------------------------------------|
|---------------------------------|------------------------------------|
|-3--1-3-1-3--(3)-1-3-1--3-----1--|-3--1-3--(3)-1-3-1--3--x--x-x-x-\13-|
|-3--1-3-1-3--(3)-1-3-1--3-----1--|-3--1-3--(3)-1-3-1--3--x--x-x-x-\13-|
|light palm mute:..................................................
|
|guitar 3 (wah off)
|---------------------------------|-------------------------------------|
|---------------------------------|-------------------------------------|
|---------------------------------|-------------------------------------|
|---------------------------------|-------------------------------------|
|-x--x-x-x--x--x--x-x-x-x-x-x--x-x|-x--x-x---x--x-x-x-x--x-----x-x-x-12\|
|-x--x-x-x--x--x--x-x-x-x-x-x--x-x|-x--x-x---x--x-x-x-x--x-----x-x-x-12\|

guitar solo (2:06)
|-------------------------------------------|---------------------------|
|-------------------------------------------|---------------------------|
|-------------------------------------------|------------------13-------|
|-15--13-13-15p13-15--13-13-15p13-15--13-13-|-15--15--15--13h15---------|
|-------------------------------------------|---------------------------|
|-------------------------------------------|---------------------------|

|---------------------------------------|---------------------------------|
|-------13-16--13-16---13-16---13-16----|-13------------------------------|
|--x-15b-----15b----15b-----15b-----15b-|---16--(16)--13h16p13-(13)--(13)\|
|---------------------------------------|---------------------------------|
|---------------------------------------|---------------------------------|
|---------------------------------------|---------------------------------|

|--------------------------------------------------------------------------|
|-------------------------------------------------------15-16p15p13-15-16-18
|--------------------12-13-15p13-12-13h15h16p15-13-15-16-------------------|
|/12---13-15-16-13-15------------------------------------------------------|
|--------------------------------------------------------------------------|
|--------------------------------------------------------------------------|

|----------15-16-18-16-15-15-17/19-20p19-19-19b---16b-|
|--16-15-18-------------------------------------------|
|-----------------------------------------------------|
|-----------------------------------------------------|
|-----------------------------------------------------|
|-----------------------------------------------------|

|(16)-(16)-16p15-------------------|---------------------------16---|
|---------------16-----16----16----|-16b--(16)-16-16-16-------------|
|-------------------15----15-------|----------------------13--------|
|----------------------------------|--------------------------------|
|----------------------------------|--------------------------------|
|----------------------------------|--------------------------------|
  
  (2:39)
                                      Save             me         from
|-----------------------------------|-----------------------------------|
|-----------------------------------|-----------------------------------|
|-----------------------------------|-----------------------------------|
|-----------------------------------|-----------------------------------|
|-3--3-3-3-3--(3)-3-3-3-----8b------|-6--6-6-6-6--(6)-6-6-6-----8b------|
|-3--3-3-3-3--(3)-3-3-3-----8b------|-6--6-6-6-6--(6)-6-6-6-----8b------|

       myself                Did you    ever    really                care
|-----------------------------------|-----------------------------------|
|-----------------------------------|-----------------------------------|
|-----------------------------------|-----------------------------------|
|-----------------------------------|-----------------------------------|
|-3--3-3-3-3--(3)-3-3-3-----8b------|-1--1-1-1-1--(1)-1-1-1-----8b------|
|-3--3-3-3-3--(3)-3-3-3-----8b------|-1--1-1-1-1--(1)-1-1-1-----8b------|

                                      Save              me          from
|-----------------------------------|-----------------------------------|
|-----------------------------------|-----------------------------------|
|-----------------------------------|-----------------------------------|
|-----------------------------------|-----------------------------------|
|-3--3-3-3-3--(3)-3-3-3-----8b------|-6--6-6-6-6--(6)-6-6-6-----8b------|
|-3--3-3-3-3--(3)-3-3-3-----8b------|-6--6-6-6-6--(6)-6-6-6-----8b------|

       myself                         Tell me  you're  not     scared
|-----------------------------------|-----------------------------------|
|-----------------------------------|-----------------------------------|
|-----------------------------------|-----------------------------------|
|-----------------------------------|-----------------------------------|
|-3--3-3-3-3--(3)-3-3-3-----8b------|-1--1-1-1-1--(1)-1-1-1-----5--x-0--|
|-3--3-3-3-3--(3)-3-3-3-----8b------|-1--1-1-1-1--(1)-1-1-1-----5--x-0--|

outro (2:56)
1.                         save me                           from me
2.                         save me                           from me
3.                         save me                           from me
4.                         save me                           from me
|----------------------------------|----------------------------------|
|----------------------------------|----------------------------------|
|----------------------------------|----------------------------------|
|----------------------------------|----------------------------------|
|-0---1---2---3---3---4---5b---0---|-(0)---1---2---3---3---4---5b---0-|
|-0---1---2---3---3---4---5b---0---|-(0)---1---2---3---3---4---5b---0-|

                          save me                              from me
                          save me                              from me
                          save me                              save me
                          save me
|----------------------------------|-------------------------------------|
|----------------------------------|-------------------------------------|
|----------------------------------|------------------------------------.|
|----------------------------------|------------------------------------.|
|-0---1---2---3---3---4---5b---0---|-(0)---1---2---3--/6---5---4---3--0--|
|-0---1---2---3---3---4---5b---0---|-(0)---1---2---3--/6---5---4---3--0--|

|-----------------------------------------|
|-----------------------------------------|
|-----------------------------------------|
|-----------------------------------------|
|-(0)---1---2---3-------------------------|
|-(0)---1---2---3---6-6-6-6-6-6-6---1---0-|





Comments


Popular Damageplan tabs & chords
Blink Of An Eye Tabs
Blunt Force Trauma Tabs
Breathing New Life 1 Tabs
Breathing New Life 2 Tabs
Crawl Tabs
Explode Tabs
Explode 1 Tabs
Fuck You Tabs
Pride Tabs
Pride 1 Tabs


Song lyrics



↑ Back to top | Tablatures and chords are parodies/interpretations of the original songs. You may use it for private study, scholarship, research or language learning purposes only
© 2014 AZChords.com Contact us | Privacy policy | DMCA | Add/correct tabs | Request tabs | Top 50 tabs