» » »

Damageplan, Breathing New Life Tabs (ver.3)

Artists:  A B C D E F G H I J K L M N O P Q R S T U V W X Y Z # 

Breathing New Life Tabs (ver.3)

Damageplan Tabs
Rating:
3/5 (1 vote)
Breathing New Life lessons Tabs too difficult? Try these video lessons and learn fast
                breathing new life 
off the album new found power

this song is drop d tuning. then all strings down half a step like this

Db Ab Db Gb Bb Eb

------------------------
------------------------
------------------------
--3--4--1--2--1--0------
--3--4--1--2--1--0------
--3--4--1--2--1--0------

------------------------
------------------------
------------------------
-3--4--1--2--5--6-------
-3--4--1--2--5--6-------
-3--4--1--2--5--6-------

------------------------------
------------------------------
----------1------------1-----4
------------------------------
------------------------------
-0---1-2------0---1-2---------

---------------------------------------------------------
-------------------1----------------------1-----4--------
---------------------------------------------------------
-00000000-1-2-6----------00000000--1-2-6-----7-----------
-00000000-1-2-6----------00000000--1-2-6-----7-----------
-00000000-1-2-6----------00000000--1-2-6-----7-----------

------------------------------------------
------------------------------------------
------------------------------------------
--0-0-0--9-7-6--666666666666--------------
--0-0-0--9-7-6--666666666666--------------
--0-0-0--9-7-6--666666666666--------------

------------------------------------------
------------------------------------------
------------------------------------------
--00000--6-9-7-6---4--0--3----------------
--00000--6-9-7-6---4--0--3----------------
--00000--6-9-7-6---4--0--3----------------

-------------
-------------
-------------
--00000------
--00000------ after this bit you get the squeals then a solo
--00000------

--------------------------------------
---------------the last slide is played much slower than the other four  
---------------------------------------
--6/0--6/0--6/0--6/0-----6/0-----------
--6/0--6/0--6/0--6/0-----6/0-----------
--6/0--6/0--6/0--6/0-----6/0-----------

-----------------------------------------------
-----------------------------------------------
-----------------------------------------------
-3--4--3--1--2--5--6--2--5--6--2--5--6--2--5--6
-3--4--3--1--2--5--6--2--5--6--2--5--6--2--5--6
-3--4--3--1--2--5--6--2--5--6--2--5--6--2--5--6

thats it 

you can put it in order yourself coz it aint hard

martin colclough
            

comments powered by Disqus
↑ Back to top | Damageplan Tabs for Breathing New Life. Lyrics for acoustic guitar and electric guitar. Tablatures and chords are parodies/interpretations of the original songs. You may use it for private study, scholarship, research or language learning purposes only