» » »

Damageplan, Moment Of Truth Tabs (ver.1)

Artists:  A B C D E F G H I J K L M N O P Q R S T U V W X Y Z # 

Moment Of Truth Tabs (ver.1)

Damageplan Tabs
Rating:
4/5 (3 votes)
Moment Of Truth lessons Tabs too difficult? Try these video lessons and learn fast
                -------------------------------------------------------------------------------
			     DamagePlan - Moment Of Truth
-------------------------------------------------------------------------------

Tuning: Drop Bb (High to Low: Bb F Bb Eb G C)

===============================================================================

Dime was usually tuned in either Db or Drop B on the New Found Power record, 
but as far as I can tell, this song is tuned in Bb 
(4 steps down, then drop low Db two additional steps).
This is purely by ear, so go easy on me ;)

Each '-' equals 1/16 of a beat

Tempo: 170 bmp
Timing: 4/4
Intro:
                                          _______3_______
 C||------------------|-----------------|-----------------|-----------------|
 G||------------------|-----------------|-----------------|-----------------|
Eb||%-----------------|-----------------|-----------------|-----------------|
Bb||%-----------------|-----------------|-----------------|-4---------------|
 F||--8-8-8-8-8-8-8-8-|-8-8-8-8-8-8-8-8-|-6-----5----3----|-4---------------|
Bb||------------------|-----------------|-----------------|-4---------------|
      *       *	        *       *
                                                        _______________________________________
                      _______3_______   _______3_______ |1.               ||2.               ||
 C|-----------------|-----------------|-----------------|-----------------||-----------------||
 G|-----------------|-----------------|-----------------|-----------------||-----------------||
Eb|-----------------|-----------------|-----------------|----------------%||-----------------||
Bb|-----------------|-----------------|-8-----7----5----|-6--------------%||-3-------1-------||
 F|-8-8-8-8-8-8-8-8-|-6-----5----3----|-----------------|-6---------------||-3-------1-------||
Bb|-----------------|-----------------|-----------------|-6---------------||-3-------1-------||
    *       *
* Bend from 8 to 9 release down to 8 (8b9r)


Tempo: 130 bpm
Timing: 3/4


Main Riff:

 C|-------------|-------------|-------------|-------------|
 G|-12----------|-(12)--------|-------------|-------------|
Eb|-12----------|-(12)--------|-------------|-------------|
Bb|-12----------|-(12)--------|-------------|-------------|
 F|-------------|-------------|-0---0---0-0-|-0-----------|
Bb|-------------|-------------|-0---0---0-0-|-0-----------|
    *________________________   .   .   . .   .

 C|-------------|-------------|-------------|-------------|
 G|-12----------|-(12)--------|-------------|-------------|
Eb|-12----------|-(12)--------|-------------|-------------|
Bb|-12----------|-(12)--------|-------------|-------------|
 F|-------------|-------------|-0---0---0-0-|-0---0---0-0-|
Bb|-------------|-------------|-0---0---0-0-|-0---0---0-0-|
    *________________________   .   .   . .   .   .   . .

 C|-------------|-------------|-------------|-------------|
 G|-12----------|-(12)--------|-------------|-------------|
Eb|-12----------|-(12)--------|-------------|-------------|
Bb|-12----------|-(12)--------|-------------|-------------|
 F|-------------|-------------|-0---0---0-0-|-0-----------|
Bb|-------------|-------------|-0---0---0-0-|-0-----------|
    *________________________   .   .   . .   .

 C|-------------|-------------|-------------|-------------|
 G|-12----------|-(12)--------|-(12)--------|-(12)--------|
Eb|-12----------|-(12)--------|-(12)--------|-(12)--------|
Bb|-12----------|-(12)--------|-(12)--------|-(12)--------|
 F|-12----------|-(12)--------|-------------|-------------|
Bb|-------------|-------------|-------------|-------------|
    *____________________________________________________

* Gradually detune 3 half-steps with tremolo-bar



Verse Riff 1:

 C|-------------|-------------|-------------|-------------|
 G|-------------|-------------|-------------|-------------|
Eb|-------------|-------------|-------------|-------------|
Bb|-------------|-------------|-------------|-------------|
 F|-----------5-|-----------5-|-----------5-|-------------|
Bb|-0---5-6-7---|-0---5-6-7---|-0---5-6-7---|-0---7-6-5-3-|
							   
 C|-------------|-------------|-------------|-------------|
 G|-------------|-------------|-------------|-------------|
Eb|-------------|-------------|-------------|-------------|
Bb|-------------|-------------|-------------|-------------|
 F|-----------5-|-----------5-|-----------5-|-------------|
Bb|-0---5-6-7---|-0---5-6-7---|-0---5-6-7---|-6b7---------|
                                              *
*Bend gradually throughout the whole measure


Verse Riff 2:

 C|-------------|-------------|-------------|-------------|
 G|-------------|-------------|-------------|-------------|
Eb|-------------|-------------|-------------|-------------|
Bb|-------------|-------------|-------------|-------------|
 F|-0---5-6-7-5-|-0---5-6-7-5-|-0---5-6-7-5-|-0---7-6-5-3-|
Bb|-0---5-6-7---|-0---5-6-7---|-0---5-6-7---|-0---7-6-5-3-|
    .   . . .     .   . . .     .   . . .     .   . . . .	
Gradually release palm-muting						   


Verse Riff 3:
 C|-------------|-------------|-------------|-------------|
 G|-------------|-------------|-------------|-------------|
Eb|-------------|-------------|-------------|-------------|
Bb|-------------|-------------|-------------|-------------|
 F|-0---5-6-7-5-|-0---5-6-7-5-|-0---0---0-0-|-0---0---0-0-|
Bb|-0---5-6-7---|-0---5-6-7---|-0---0---0-0-|-0---0---0-0-|
    .   . . .     .   . . .     .   . . .     .   . . . .


Verse Riff 4:

 C|-------------|-------------|-------------|-------------|
 G|-12----------|-(12)--------|-------------|-------------|
Eb|-12----------|-(12)--------|-------------|-------------|
Bb|-12----------|-(12)--------|-------------|-------------|
 F|-------------|-------------|-0---0---0-0-|-0---0---0-0-|
Bb|-------------|-------------|-0---0---0-0-|-0---0---0-0-|
    *________________________   .   .   . .   .   .   . .

 C|-------------|-------------|-------------|-------------|
 G|-12----------|-(12)--------|-(12)--------|-(12)--------|
Eb|-12----------|-(12)--------|-(12)--------|-(12)--------|
Bb|-12----------|-(12)--------|-(12)--------|-(12)--------|
 F|-12----------|-(12)--------|-------------|-------------|
Bb|-------------|-------------|-------------|-------------|
    *____________________________________________________

* Gradually detune 3 half-steps with tremolo-bar


Verse Riff 5:

 C|-------------|-------------|-------------|-------------|
 G|-12----------|-(12)--------|-------------|-------------|
Eb|-12----------|-(12)--------|-------------|-------------|
Bb|-12----------|-(12)--------|-------------|-------------|
 F|-------------|-------------|-0---0---0-0-|-0---0---0-0-|
Bb|-------------|-------------|-0---0---0-0-|-0---0---0-0-|
    *________________________   .   .   . .   .   .   . .

* Gradually detune 3 half-steps with tremolo-bar



Chorus:

 C||--------------|-------------|-------------|-------------|
 G||--------------|-------------|-------------|-------------|
Eb||%-------------|-------------|-------------|-------------|
Bb||%-------------|-------------|-------------|-------------|
 F||------------5-|-8---5---3h5-|---------3h5-|-------------|
Bb||--0-----5h7---|-------------|-6-----------|-5-----3b----|
                                                      *
*Bend 1/4 step                              _______________
					    |1.           ||
 C|-------------|-------------|-------------|-------------||
 G|-------------|-------------|-------------|-------------||
Eb|-------------|-------------|-------------|------------%||
Bb|-------------|-------------|-------------|------------%||
 F|-----------5-|-8---5---3h5-|-6-----------|-5-----8-----||
Bb|-0-----5h7---|-------------|-6-----------|-5-----8-----||

  __________________________________________________________
  |2.                                                     ||	
 C|-------------|-------------|-------------|-------------||
 G|-------------|-------------|-------------|-------------||
Eb|-------------|-------------|-------------|-------------||
Bb|-4-----------|-4-----------|-4----[4]----|-4----[4]----||
 F|-4-----------|-4-----------|-4----[4]----|-4----[4]----||
Bb|-4-----------|-4-----------|-4----[4]----|-4----[4]----||
                                      *             *
* Only during solo



Outro:
 C|-------------|-------------|-------------|-------------||
 G|-------------|-------------|-------------|-------------||
Eb|-------------|-------------|-------------|-------------||
Bb|-0-----------|-(0)---------|-(0)---------|-(0)---------||
 F|-0-----------|-(0)---------|-(0)---------|-(0)---------||
Bb|-0-----------|-(0)---------|-(0)---------|-(0)---------|| Fade out

===============================================================================

Riff Order:
 Intro		x 1

 Main Riff	x 1
 
 Verse
 - Verse Riff 1	x 1
 - Verse Riff 2	x 2
 - Verse Riff 4 x 1
 - Verse Riff 1	x 1
 - Verse Riff 2	x 2
 - Verse Riff 5 x 2

 Chorus		x 1

 Main Riff	x 1

 Verse:
 - Verse Riff 1	x 1
 - Verse Riff 2	x 2
 - Verse RIff 5 x 2

 Chorus		x 1

 Solo Backing:
 - Verse Riff 1 x 1
 - Verse Riff 2 x 2
 - Verse Riff 4 x 1
 - Verse Riff 1 x 1
 - Verse Riff 2 x 2
 - Verse Riff 5 x 2
 - Chorus	x 1
 
 Verse:
 - Verse Riff 1	x 1
 - Verse Riff 2	x 1
 - Verse Riff 3 x 1

 Chorus		x 1

 Intro		x 1
 Outro		x 1

===============================================================================
| /  slide up
| \  slide down
| h  hammer-on
| p  pull-off
| ~  vibrato
| +  harmonic
| x  Mute note
| .  Palm mute
| b  Bend
| br Bend/release
===============================================================================
            

comments powered by Disqus
↑ Back to top | Damageplan Tabs for Moment Of Truth. Lyrics for acoustic guitar and electric guitar. Tablatures and chords are parodies/interpretations of the original songs. You may use it for private study, scholarship, research or language learning purposes only