>
 >
Pride

Pride Guitar Tabs

Damageplan - Pride chords, tabs, tablatures, lyrics

Guitar lessons | Add/correct | Request | Top 50 tabs Artists:  A B C D E F G H I J K L M N O P Q R S T U V W X Y Z 0-9

Pride Guitar Tabs – Damageplan

CD, Sheet music, Poster

Do you like Pride? Share with your friends now
Bass TabsTabsTabs v2
Pride by DamagePlan
Band:DamagePlan
Album:New Found Power

This is for ppl who cant download tht fukin guitar pro s*** so im sure this is the 100% 
version. R.I.P Dimebag

Tuning:B-F#-B-E-G#-C#

Intro
C#|----------2-------------5-----|
G#|------------3---------8-------|
E |-------4------4/7---7---------|  x6
B |----2------------5------------|
F#|------------------------------|
B |--2---------------------------|

On the 4th time of playing the intro come in with this
C#|---------------------------------------------------|
G#|---------------------------------------------------|
E |---------------------------------------------------|  x8
B |---------------------------------------------------|
F#|---------------------------------------------------|
B |--2--(4)-(2)-0-2-(4)-(2)-0-2-(4)-(2)-0-2-(4)-(2)-0-|

Main Riff
C#|------------------------------------------------------------------------|
G#|------------------------------------------------------------------------|
E |------------------------------------------------------------------------|
B |--2-2---0--2-2---0--2-2---0-2-2---0--5-5---0--5-5---0--5-5---0--5-5---0-|
F#|--2-2---0--2-2---0--2-2---0-2-2---0--5-5---0--5-5---0--5-5---0--5-5---0-|
B |--2-2---0--2-2---0--2-2---0-2-2---0--5-5---0--5-5---0--5-5---0--5-5---0-|

C#|------------------------------------------------------------------------|
G#|------------------------------------------------------------------------|
E |------------------------------------------------------------------------|
B |--2-2---0--2-2---0--2-2---0--2-2---0--5-5---0--5-5---0------------------|
F#|--2-2---0--2-2---0--2-2---0--2-2---0--5-5---0--5-5---0------------------|
B |--2-2---0--2-2---0--2-2---0--2-2---0--5-5---0--5-5---0-/12--9--8--7--5-0|
                                        X2

Verse
C#|------2---------------5----|        C#|------2------------5-------7---|
G#|---------3----------8----8-|        G#|----0-----3--0-------8-------10|
E |----4-------4/7---7--------| X5     E |-----------------7-------9-----|x1
B |--2-------------5----------|   Then B |--2------------5-------7-------|
F#|---------------------------|        F#|-------------------------------|
B |---------------------------|        B |-------------------------------|

Do the whole verse twice- on the second time do the 1st part x3

Main Riff
C#|------------------------------------------------------------------------|
G#|------------------------------------------------------------------------|
E |------------------------------------------------------------------------|
B |--2-2---0--2-2---0--2-2---0-2-2---0--5-5---0--5-5---0--5-5---0--5-5---0-|
F#|--2-2---0--2-2---0--2-2---0-2-2---0--5-5---0--5-5---0--5-5---0--5-5---0-|
B |--2-2---0--2-2---0--2-2---0-2-2---0--5-5---0--5-5---0--5-5---0--5-5---0-|

C#|------------------------------------------------------------------------|
G#|------------------------------------------------------------------------|
E |------------------------------------------------------------------------|
B |--2-2---0--2-2---0--2-2---0--2-2---0--5-5---0--5-5---0------------------|
F#|--2-2---0--2-2---0--2-2---0--2-2---0--5-5---0--5-5---0------------------|
B |--2-2---0--2-2---0--2-2---0--2-2---0--5-5---0--5-5---0-/12--9--8--7--5-0|
                                        X2

Verse 2
C#|------2---------------5----|        C#|------2------------5-------7---|
G#|---------3----------8----8-|        G#|----0-----3--0-------8-------10|
E |----4-------4/7---7--------| X3     E |-----------------7-------9-----|x1
B |--2-------------5----------|   Then B |--2------------5-------7-------|
F#|---------------------------|        F#|-------------------------------|
B |---------------------------|        B |-------------------------------|

Do the whole verse twice- on the second time do the 1st part x2

Main Riff
C#|------------------------------------------------------------------------|
G#|------------------------------------------------------------------------|
E |------------------------------------------------------------------------|
B |--2-2---0--2-2---0--2-2---0-2-2---0--5-5---0--5-5---0--5-5---0--5-5---0-|
F#|--2-2---0--2-2---0--2-2---0-2-2---0--5-5---0--5-5---0--5-5---0--5-5---0-|
B |--2-2---0--2-2---0--2-2---0-2-2---0--5-5---0--5-5---0--5-5---0--5-5---0-|

C#|------------------------------------------------------------------------|
G#|------------------------------------------------------------------------|
E |------------------------------------------------------------------------|
B |--2-2---0--2-2---0--2-2---0--2-2---0--5-5---0--5-5---0------------------|
F#|--2-2---0--2-2---0--2-2---0--2-2---0--5-5---0--5-5---0------------------|
B |--2-2---0--2-2---0--2-2---0--2-2---0--5-5---0--5-5---0-/12--9--8--7--5-0|
                                   x2
Bridge
C#|-----X-X---X-X-X----X-X---X-X-X----X-X---X-X-X----X-X---------------|
G#|-----X-X---X-X-X----X-X---X-X-X----X-X---X-X-X----X-X---------------|
E |-----X-X---X-X-X----X-X---X-X-X----X-X---X-X-X----X-X---------------|X7
B |--2--X-X---X-X-X-2--X-X---X-X-X-2--X-X---X-X-X-2--X-X---------------|
F#|--2--X-X---X-X-X-2--X-X---X-X-X-2--X-X---X-X-X-2--X-X---------------|
B |--2--X-X---X-X-X-2--X-X---X-X-X-2--X-X---X-X-X-2--X-X-2-(3)-(2)-0-1-|

Bridge 2
C#|-----------|  C#|-----|
G#|-----------|  G#|-----|
E |-----------|  E |-----|
B |-2-3-2-0-1-|  B |-3-0-| X 8  both bridges go behind the solo
F#|-2-3-2-0-1-|  F#|-3-0-|
B |-2-3-2-0-1-|  B |-3-0-|

Solo
C#|------------------------------------------------------------------------|
G#|----------------------------------------------------------------HOLDBEND|
E |-------------------------------------------------------------7--(9)--^19|
B |-----7-(9)-(7)-5-7-9--------7-(9)-(7)-5----------7-(9)-(7)-5------------|
F#|----------------------------------------7-------------------------------|
B |------------------------------------------------------------------------|

C#|---------------------------------------------------------17(19)--(17)-15-|
G#|-------------------------------------------------------------------------|
E |----------------------------------------------------7--9-----------------|
B |--7-(9)-(7)-5-7-9-----7-(9)-(7)-5-----7-(9)-(7)-5------------------------|
F#|----------------------------------7--------------------------------------|
B |-------------------------------------------------------------------------|

C#|--17-15-17^ HOLD BEND----|
G#|-------------------------|
E |-------------------------|
B |-------------------------|
F#|-------------------------|
B |-------------------------|

C#|---12---------------------------------------------------------------------|
G#|------15---14--12--14---------10-(12)---(10)-8-10-8-(10)------------------|
E |-----------------------11-------------------------------------------------|
B |----------------------------------------------------------9--8--8---------|(9)-(8)
F#|--------------------------------------------------------10----------------|
B |--------------------------------------------------------------------------|

C#|------------------------------------------------------------------------|
G#|--8--12-10-8-12-8-10-12-10-8-13-9-11-13-11-9-14-10-12-14-12-10-15-11-13-|
E |------------------------------------------------------------------------|
B |------------------------------------------------------------------------|
F#|------------------------------------------------------------------------|
B |------------------------------------------------------------------------|

C#|-------------------------------------------------------------------------|
G#|-15-13-11-16-12-14 16-14-12-17-13-15-17-15-13-18-14-16-18-16-14-19-15-17-|
E |-------------------------------------------------------------------------|
B |-------------------------------------------------------------------------|
F#|-------------------------------------------------------------------------|
B |-------------------------------------------------------------------------|

C#|-------15----------17---(19)HOLD BEND~~~~~~~~~~~~~~~~~------|
G#|-19-17------------------------------------------------------|
E |------------------------------------------------------------|
B |------------------------------------------------------------|
F#|------------------------------------------------------------|
B |------------------------------------------------------------|

C#|------------------------------------------------------------------------|
G#|-----12-15-12-15-12-15-12-15-12----12-15-12-15-12-----12-15-12-15-12----|
E |--------------------------------15-----------------15----------------15-|
B |------------------------------------------------------------------------|
F#|------------------------------------------------------------------------|
B |------------------------------------------------------------------------|

C#|-----------------------------|
G#|-12-15-12-15-12-----12-------|
E |-----------------15----15-14-|
B |-----------------------------|
F#|-----------------------------|
B |-----------------------------|

C#|--------------------------------------------------------------------------|
G#|--------12----------------12----------------12-------------12-------------|
E |12-14-15----15-14-12-14-15----15-14-12-14-15---15-14-12-14---15-14-12-14--|
B |--------------------------------------------------------------------------|
F#|--------------------------------------------------------------------------|
B |--------------------------------------------------------------------------|

C#|-------------------------------------------------------------------------|
G#|---BU-----------BU------BU------BU------BU-----BU-----BU----BU------BU---|
E |--12(16)-----12(16)----12(16)--12(16)-12(16)-12(16)-12(16)-12(16)-12(16)-|
B |-------------------------------------------------------------------------|
F#|-------------------------------------------------------------------------|
B |-------------------------------------------------------------------------|

C#|---------------|
G#|-------BD------|
E |------(12)\\\\-|
B |---------------|
F#|---------------|
B |---------------|

C#|-------------------------------------------------------------------------|
G#|---15-(17)-15-12-15-17-22-17-15-12-15-17-22-17-15-12-15-17-22-17-15-12---|
E |-------------------------------------------------------------------------|
B |-------------------------------------------------------------------------|
F#|-------------------------------------------------------------------------|
B |-------------------------------------------------------------------------|

C#|--12-15-12----12--|
G#|-----------15-----|
E |------------------|
B |------------------|
F#|------------------|
B |------------------|

C#|-15-12-15-12-15-12-15-12--------------------------------------------------|
G#|-------------------------15-12-15-12-----12-15-12-15-12----12-------------|
E |-------------------------------------15-----------------15----15-14-12-14-|
B |--------------------------------------------------------------------------|
F#|--------------------------------------------------------------------------|
B |--------------------------------------------------------------------------|

C#|-------------------------------|
G#|-------------------------------|
E |-12-14-(16)-(14)-12------------|
B |--------------------14-12-14\--|
F#|-------------------------------|
B |-------------------------------|
after tht awesome solo

C#|---------------------------------------------------|
G#|---------------------------------------------------|
E |---------------------------------------------------|  x1
B |---------------------------------------------------|
F#|---------------------------------------------------|
B |--2--(4)-(2)-0-2-(4)-(2)-0-2-(4)-(2)-0-2-(4)-(2)-0-|

Main Riff
C#|------------------------------------------------------------------------|
G#|------------------------------------------------------------------------|
E |------------------------------------------------------------------------|
B |--2-2---0--2-2---0--2-2---0-2-2---0--5-5---0--5-5---0--5-5---0--5-5---0-|
F#|--2-2---0--2-2---0--2-2---0-2-2---0--5-5---0--5-5---0--5-5---0--5-5---0-|
B |--2-2---0--2-2---0--2-2---0-2-2---0--5-5---0--5-5---0--5-5---0--5-5---0-|

C#|------------------------------------------------------------------------|
G#|------------------------------------------------------------------------|
E |------------------------------------------------------------------------|
B |--2-2---0--2-2---0--2-2---0--2-2---0--5-5---0--5-5---0------------------|
F#|--2-2---0--2-2---0--2-2---0--2-2---0--5-5---0--5-5---0------------------|
B |--2-2---0--2-2---0--2-2---0--2-2---0--5-5---0--5-5---0-/12--9--8--7--5-0|

Outro
C#|------------------------|
G#|------------------------|
E |------------------------|
B |-2-----3---0-----1----2-|x4
F#|-2---------0-----1----2-|
B |-2---------0-----1----2-|
============================================================================
THTS IT ROCK ON DIMEBAG \m/

BU = bend up
BD = bend down





Comments


Popular Damageplan tabs & chords
Breathing New Life Bass Tabs
Pride Bass Tabs
Blink Of An Eye Tabs
Breathing New Life 1 Tabs
Caged In A Rage 1 Tabs
Crawl Tabs
Explode 1 Tabs
New Found Power 1 Tabs
Pride 1 Tabs
Soul Bleed 2 Tabs


Song lyrics



↑ Back to top | Tablatures and chords are parodies/interpretations of the original songs. You may use it for private study, scholarship, research or language learning purposes only
© 2014 AZChords.com Contact us | Privacy policy | DMCA | Add/correct tabs | Request tabs | Top 50 tabs