>
 >
Grow Or Pay 1

Grow Or Pay 1 Guitar Tabs

D.A.D - Grow Or Pay 1 chords, tabs, tablatures, lyrics

Guitar lessons | Add/correct | Request | Top 50 tabs Artists:  A B C D E F G H I J K L M N O P Q R S T U V W X Y Z 0-9

Grow Or Pay 1 Guitar Tabs – D.A.D

CD, Sheet music, Poster

Do you like Grow Or Pay 1? Share with your friends now
TabsTabs v2
Here is the tabulature for Grow or Pay. I've written the notation, so it's
easier to read if you don't know the track already. I hope other people will
do this too, because it can be difficult to get the rhythm right without.
It's pretty long so good luck!

4/4   The Scale is of G major, or E minor.

Rhythm signs:

W    = Whole note
H    = 1/2 note
Q    = 1/4 note
E    = 1/8 note
S    = 1/16 note
3    = Triplet
--   = Triplets
.... = Improvise rhythm
__   = Linked notes
.    = Dotted note
W*   = Whole note rest
H*   = 1/2 note rest
Q*   = 1/4 note rest
E*   = 1/8 note rest
S*   = 1/16 note rest

Tabulature signs:

H    = Hammer-on
P    = Pull-off
^    = Bend up-down
?    = Harmonic note
x    = Deadend note
/    = Slide up
\    = Slide down

Form:

Intro
Verse A
Chorus B
Verse A1
Chorus B1
Bridge
Solo
Interlude
Chorus B2
Chorus B3
Chorus B3
Chorus B3
Outro


Intro
 Em                               D       Dsus4  C
|-------------2-----0----|-2-----3----|-------------2-----0----|
|------------------------|-3-----3----|----------1-------------|
|----------0-------------|-2-----2----|-------0----------------|
|-------2----------------|-0-----0----|----2-------------------|
|----2-------------------|------------|-3----------------------|
|-0----------------------|------------|------------------------|
  E  E  E  E  Q     Q      Q Q*  Q Q*   E  E  E  E  Q     Q
                                                                 B7
Em                       C7       C maj7
|-------------2----------|-------------7-----3----|-6-----7----|
|----------0-------------|------------------------|-5-----5----|
|-------2----------------|----------0-------------|-5-----5----|
|----1-------------------|-------2----------------|------------|
|-2----------------------|----2-------------------|------------|
|------------------------|-0----------------------|------------|
  E  E  E  E  Q  Q*        E  E  E  E  Q     Q      Q Q*  Q Q*

 F#m7 b5                  B7
|------------------------|-------------2----------||-------------------------|
|----------0-----------------------------------------------------------------|
|----------0-------------|-------2-------------------------------------------|
|-------2-----4-----2----|----1----------------------------------------------|
|----3-------------------|-2-------------------------------------------------|
|-2----------------------|---------------------------------------------------|
  E  E  E  E  Q     Q      E  E  E  E  Q Q*

 Em                       Bm           D
|-------------2-----0----|-2----------|-------------2-----0----|
|------------------------|-3----------|-------3----------------|
|----------0-------------|-4----------|----2-----2-------------|
|-------2----------------|-4----------|-0----------------------|
|----2-------------------|-2----------|------------------------|
|-0----------------------|------------|------------------------|
  E  E  E  E  Q     Q      Q ....       E  E  E  E  Q     Q

 A            Em                       Bm
|-0----------|-------------2-----0----|-2----------||-2----------|-----------|
--------------|-3----------||-2----------|----------0-------------|-4--------|
---||-2----------|-------2----------------|-4--------------------------------|
|-0----------|----2-------------------|-2------------------------------------|
|------------|-0----------------------|--------------------------------------|
  Q ....       E  E  E  E  Q     Q      Q ....

 D                        A/C#         Am
|-------------2-----0----|-0----------|--------------7----------|
|-------3----------------|-2----------|----------10-------10----|
|----2-----2-------------|-2----------|--------9----------------|
|-0----------------------|-2----------|----10-------------------|
|------------------------|-0----------|-12----------------------|
|------------------------|------------|-------------------------|
  E  E  E  E  Q     Q      Q ....       E  E   E  E  Q     Q

 C            C                        Em              G
|-8----------|----------8--12----8----|-7-------------|-10-----7----|
|------------|-------8----------------|----7^8-7^8----|-----------8-|
|------------|----9-------------------|---------------|-------------|
|------------|-10---------------------|---------------|-------------|
|------------|------------------------|---------------|-------------|
|------------|------------------------|---------------|-------------|
  Q   H* Q*    E  E  E  E  Q     Q      Q  E E E E Q*    Q Q*  Q  Q

Verse A
 D                Dsus2                  A
|-2----------|-------0--------------|-0----------||-3----------|-------------|
--3-------|-2----------||-2----------|----------------------|-2--------------|
|-0----------|----------------------|-2--------------------------------------|
|------------|----------------------|-0--------------------------------------|
|------------|----------------------|----------------------------------------|
  Q  H* Q*     Q* E* E  E*  E  Q*     Q   H* Q*

 Bm                       D            Dsus2
|-2----------------------|-2----------|-------0------------|
|-3----------3-P-2-------|-3----------|------------3-------|
|-4---2-H-4---------4----|-2----------|--------------------|
|-4----------------------|-0----------|--------------------|
|-2----------------------|------------|--------------------|
|------------------------|------------|--------------------|
  Q   E   E  E   E  E  E*  Q H* Q*      Q* E* E E* E Q*

 A            G                        D            Em
|-0----------|-3--------------------|-2----------|-0----------|
|-2----------|-0--------------------|-3----------|-0----------|
|-2----------|-0------------0-------|-2----------|-0----------|
|-2----------|-0---------4-----4----|-0----------|-2----------|
|-0----------|-2------5-----------5-|------------|-2----------|
|------------|-3--------------------|------------|-0----------|
  Q H* Q*          Q  E*  E  E  E  E  E   H  H*        H  H*

 E            G                        A7                   A7
|-0----------|-3-------------------|-0----------|-0----------|
|-0----------|-0-------------------|-2----------|-2----------|
|-1----------|-0--------------0----|-0----------|-0----------|
|-2----------|-0-------0-H-2-----2-|-2----------|-2----------|
|-2----------|-2-------------------|-0----------|-0----------|
|-0----------|-3-------------------|------------|------------|
  H  H*    Q  Q*   E   E  E  E   Q ....       Q ....
Chorus B
 Em                             Bm               D
|-------------2---0----|-2----------|-------------2--0----||-----------------|
------|-3----------|-------3-------------||----------0-----------|-4---------|
--|----2-----2---------------------------------------------------------------|
|-------2--------------|-4----------|-0--------------------------------------|
|----2-----------------|-2----------|----------------------------------------|
|-0--------------------|------------|----------------------------------------|
  E  E  E  E  Q   Q      Q ....       E  E  E  E  Q  Q

 A                Em                               Bm
|-0----------|-------------2---0----|-2----------|
|-2----------|----------------------|-3----------|
|-2----------|----------0-----------|-4----------|
|-2----------|-------2--------------|-4----------|
|-0----------|----2-----------------|-2----------|
|------------|-0--------------------|------------|
 Q ....        E  E  E  E  Q   Q      Q ....

 D                     A            A/C#   Asus2  Am Am
|-------------2--0----|-0----------|-0------0-----0--0----|
|-------3-------------|-2----------|-1------0-----1--1----|
|----2-----2----------|-2----------|-2------2-----2--2----|
|-0-------------------|-2----------|-2------2-----2--2----|
|---------------------|-0----------|-0------0-----0--0----|
|---------------------|------------|----------------------|
  E  E  E  E  Q  Q      Q ....       E   E* E  E* E  Q

 C            C                        Em           G
|-0----------|-----------------------|-0----------|-3----------|
|-1----------|-----------------------|-0----------|-0----------|
|-0----------|-------0-------0-------|-0----------|-0----------|
|-2----------|-0-H-2---0-H-2---0-H-2-|-2----------|-0----------|
|-3----------|-----------------------|-2----------|-2----------|
|------------|-----------------------|-0----------|-3----------|
  Q  H* Q*     E         E E E   E E E   E   Q  H* Q*       Q  H* Q*

Verse A1
 D       Dsus4     D   Dsus2   D
A|-2---------3-|----2-----0-----2-------|-0----------||-3---------3-|----3---|
---3-----3-------|-2----------||-2---------2-|----2-----2-----2-------|-2----|
-----------------------------------------------------------------------------|
|-0---------0-|----0-----0-----0-------|-2-----------------------------------|
|-------------|------------------------|-0-----------------------------------|
|-------------|------------------------|-------------------------------------|
  Q  H* E*  E   E* E  E* E  E* E  Q*     Q  H* Q*

 Bm                        D            D
|------------------------|-2----------|-----------------------------|
|---------------3--------|-3----------|-7-H-8-H-10-P-8-P-7-H-8-H-10-|
|--------4-H-6-----6-P-4-|-2----------|-7---------------------------|
|------------------------|-0----------|-7---------------------------|
|------------------------|------------|-----------------------------|
|------------------------|------------|-----------------------------|
  Q* E*  E   E  E  E   E   Q  H* Q*     E   E   E    E   E   E   Q

  A            G                        D
|-0----------|-3-------------------7/|-5----------|
|-2----------|-0-------------7-------|------------|
|-2----------|-0-------5/-7-----7----|------------|
|-2----------|-0---------------------|------------|
|-0----------|-2---------------------|------------|
|------------|-3---------------------|------------|
  Q   H* Q*    Q   E*  E  E  E  E  E   Q  H* Q*

 Em                        E            G
|-3-P-2-P-0-----0----------|-0----------|-3------------------|
|------------3--0----------|-0----------|-0------------------|
|---------------0----------|-1----------|-0----------2--0----|
|---------------2----------|-2----------|-0-------0--2--0--2-|
|---------------2----------|-2----------|-2------------------|
|---------------0----------|-0----------|-3------------------|
  E   E   E  E  Q   Q*       Q  H* Q*     Q   Q*  E  E  E  E


  A7           A7
|-0----------|-0----------|
|-2----------|-2----------|
|-0----------|-0----------|
|-2----------|-2----------|
|-0----------|-0----------|
|------------|------------|
  Q ....       Q ....

Chorus B1
 Em                             Bm               D
|-------------2---0----|-2----------|-------------2--0----||-----------------|
------|-3----------|-------3-------------||----------0-----------|-4---------|
--|----2-----2---------------------------------------------------------------|
|-------2--------------|-4----------|-0--------------------------------------|
|----2-----------------|-2----------|----------------------------------------|
|-0--------------------|------------|----------------------------------------|
  E  E  E  E  Q   Q      Q ....       E  E  E  E  Q  Q

 A                Em                               Bm
|-0----------|-------------2---0----|-2----------|
|-2----------|----------------------|-3----------|
|-2----------|----------0-----------|-4----------|
|-2----------|-------2--------------|-4----------|
|-0----------|----2-----------------|-2----------|
|------------|-0--------------------|------------|
 Q ....        E  E  E  E  Q   Q      Q ....

 D                     A            Am/C#  Asus2  Am Am
|-------------2--0----|-0----------|-0------0-----0--0----|
|-------3-------------|-2----------|-1------0-----1--1----|
|----2-----2----------|-2----------|-2------2-----2--2----|
|-0-------------------|-2----------|-2------2-----2--2----|
|---------------------|-0----------|-0------0-----0--0----|
|---------------------|------------|----------------------|
  E  E  E  E  Q  Q      Q ....       E   E* E  E* E  Q

 C            C                        Em           G
|-0----------|-----------------------|-0----------|-3----------|
|-1----------|-----------------------|-0----------|-0----------|
|-0----------|-------0-------0-------|-0----------|-0----------|
|-2----------|-0-H-2---0-H-2---0-H-2-|-2----------|-0----------|
|-3----------|-----------------------|-2----------|-2----------|
|------------|-----------------------|-0----------|-3----------|
  Q  H* Q*     E         E E E   E E E   E   Q  H* Q*       Q  H* Q*

  Am              C
|-0----------|-0----------|
|-1----------|-1----------|
|-2----------|-0----------|
|-2----------|-2----------|
|-0----------|-3----------|
|------------|------------|
  Q  H* Q*     Q  H* Q*

Bridge
 Em                               Bm               D
|------------------------|------------|-------------------------||-----------|
--------------|------------|-------------------------||----0__0-----0--------|
---|------------|------------------------------------------------------------|
|----------------------4_|_4----------|-0-H-4__4--0--4-----0-2_--------------|
|-2--------2--------2----|------------|--------------------------------------|
|------------------------|------------|--------------------------------------|
  E  E  E  E  Q     E  E   Q  H* Q*     E   E  E  E  Q     E E

 A            Em                       D
|------------|------------------------|------------|
|------------|------------------------|------------|
|------------|----0__0-----0----------|------------|
|_2----------|----------------------4_|_4----------|
|------------|-2--------2--------2----|------------|
|------------|------------------------|------------|
  Q  H* Q*     E  E  E  E  Q     E  E   Q  H* Q*

 A                        A
|-----------------------|-----------------------|
|-----------------------|-----------------------|
|----2__2-----2-------2_|_2-----2-------2__2----|
|-2--------2-------2----|----2-------2--------2-|
|-----------------------|-----------------------|
|-----------------------|-----------------------|
  E  E  E  E  Q    E  E   E  E  Q    E  E  E  E

Solo
 Em                      D
|-----------------|----------------------|
|-----------------|--------------------5-|
|-----------------|-5--4--4---4-----4----|
|-5-------5-----5-|----------------------|
|-----------------|----------------------|
|-----------------|----------------------|
  Q Q* E* E  E* E   Q--Q--Q   Q.    S  S
 A                 G
|-----------------|------------||-----------------|------------||------------|
------|------------||-4-------------4-|------------||---------5-------|-5----|
-------||-----------------|--------------------------------------------------|  Q Q* E* E  E* E   Q  H* Q*
 Em
|-----------------2--2--3--2--------|
|-5------------x---------------5----|
|-----------x-----------------------|
|-----------------------------------|
|-----------------------------------|
|-----------------------------------|
  Q  Q*     S--S--S  S  S  E   E
 Bm                  D                      A
|-2-------------|----------------------|------------|
|----3----------|-7---------5-----7----|-5----------|
|---------------|-7---------6-----7----|-6----------|
|---------------|----------------------|------------|
|---------------|----------------------|------------|
|---------------|----------------------|------------|
  E  E  H* Q*     Q  Q* E*  E  S* E.     Q  H* Q*
 Em                          D
|---------------------|--------------------------|
|-------8--7--8-------|10----------10------------|
|----x-------------9--|---12-11-12----12-11------|
|-x-------------------|--------------------------|
|---------------------|--------------------------|
|---------------------|--------------------------|
  E--E--E--E--E E* Q   E  E  E  E  Q--Q----------|Q
 A                   A
|-------------------|-------------|
|10--------12/---14_|_14----------|
|----------12-------|-14----------|
|----------12-------|-14----------|
|-------------------|-------------|
|-------------------|-------------|
 Q  Q* E*  E  E* E    Q  H* Q*

Interlude
 Em                               D       Dsus4  C
|-------------2-----0----|-2-----3----|-------------2-----0----|
|------------------------|-3-----3----|----------1-------------|
|----------0-------------|-2-----2----|-------0----------------|
|-------2----------------|-0-----0----|----2-------------------|
|----2-------------------|------------|-3----------------------|
|-0----------------------|------------|------------------------|
  E  E  E  E  Q     Q      Q Q*  Q Q*   E  E  E  E  Q     Q
                                                                 B7
Em                       C7       C maj7
|-------------2----------|-------------7-----3----|-6-----7----|
|----------0-------------|------------------------|-5-----5----|
|-------2----------------|----------0-------------|-5-----5----|
|----1-------------------|-------2----------------|------------|
|-2----------------------|----2-------------------|------------|
|------------------------|-0----------------------|------------|
  E  E  E  E  Q  Q*        E  E  E  E  Q     Q      Q Q*  Q Q*

 F#m7 b5                   B7
|------------------------|-------------2----------||-------------------------|
|----------0-----------------------------------------------------------------|
|----------0-------------|-------2-------------------------------------------|
|-------2-----4-----2----|----1----------------------------------------------|
|----3-------------------|-2-------------------------------------------------|
|-2----------------------|---------------------------------------------------|
  E  E  E  E  Q     Q      E  E  E  E  Q Q*

Chorus B2
 Em7              Bm7              Em               Bm7
|-0----------|-2----------|-0----------|----------------------|
|-0----------|-3----------|-0----------|-3-P-2-P-0------------|
|-0----------|-2----------|-0----------|------------2---------|
|-0----------|-4----------|-2----------|---------------4------|
|-2----------|-2----------|-2----------|---------------4------|
|-0----------|------------|-0----------|----------------------|
  Q  H* Q*         Q  H* Q*     Q ....       E   E   E  E  Q  Q*

 D                           A          Am/C#  Asus2  Am    Am
|-------------2--0----|-0----------|-0------0-----0-----0-|
|-------3-------------|-2----------|-1------0-----1-----1-|
|----2-----2----------|-2----------|-2------2-----2-----2-|
|-0-------------------|-2----------|-2------2-----2-----2-|
|---------------------|-0----------|-0------0-----0-----0-|
|---------------------|------------|----------------------|
  E  E  E  E  Q  Q      Q ....       Q  E*  E  E* E  E* E

 C            C
|-0----------|-----------------------|
|-1----------|-----------------------|
|-0----------|-------0-------0-------|
|-2----------|-0-H-2---0-H-2---0-H-2-|
|-3----------|-----------------------|
|------------|-----------------------|
  Q ....       E   E E E   E E E   E

Chorus B3
 Em                          Bm         D
|-------------2--0----|-2----------|-------------2---0----|
|---------------------|-3----------|-------3--------------|
|----------0----------|-4----------|----2-----2-----------|
|-------2-------------|-4----------|-0--------------------|
|----2----------------|-2----------|----------------------|
|-0-------------------|------------|----------------------|
  E  E  E  E  Q  Q      Q ....       E  E  E  E  Q  Q

 A            Em                     Bm
|-0----------|-------------2---0----|-2----------|
|-2----------|----------------------|-3----------|
|-2----------|----------0-----------|-4----------|
|-2----------|-------2--------------|-4----------|
|-0----------|----2-----------------|-2----------|
|------------|-0--------------------|------------|
  Q ....       E  E  E  E  Q  Q       Q ....

 D                      A            Am/C#
|-------------2---0----|-0----------|--------------7---------|
|-------3--------------|-2----------|----------10------10----|
|----2-----2-----------|-2----------|--------9---------------|
|-0--------------------|-2----------|----10------------------|
|----------------------|-0----------|-12---------------------|
|----------------------|------------|------------------------|
  E  E  E  E  Q  Q       Q ....       E  E   E  E  Q   Q

 C            C
|-8----------|-----------8-12--8----|
|------------|--------8-------------|
|------------|-----9----------------|
|------------|-10-------------------|
|------------|----------------------|
|------------|----------------------|
  Q H* Q*      E   E  E  E Q   Q

Outro
 Em              F#m7 b5          B7                        E
|------------------------|-------------2-----|-0-------?12-|
|------------------------|----------0--------|-0-------?12-|
|----------0-----------0-|-------2-----------|-1-----------|
|-------2-----------2----|----1--------------|-2-----------|
|----2-----------3-------|-2-----------------|-2-----------|
|-0-----------2----------|-------------------|-0-----------|
  E  E  E  E  E  E  E  E   E  E  E  E  Q  Q*   Q  H*    Q

The second guitar just plays palm-muted powerchords on the chorus, and flat
chords on the verse. The chords are displayed above the tabulature. The bass
is the same as guitar II, except for the C# at the end of the chorus, but
all this is displayed. Remember, a little distortion on the powerchords, but
otherwise clean instruments.

Enjoy!

Transcriped by Anders Iversen, Nijas ?rnbak Fjeldmose





Comments


Popular D.A.D tabs & chords
Camping In Scandinavia 1 Chords
Allright Tabs
Camping In Scandinavia (Intro) Tabs
Candybar Tabs
Cloudy Hours Tabs
Evil Twin Tabs
Isn That Wild Tabs
Point Of View Intro Tabs
Written In Water Tabs
Its After Dark Ukulele


Song lyrics



↑ Back to top | Tablatures and chords are parodies/interpretations of the original songs. You may use it for private study, scholarship, research or language learning purposes only
© 2014 AZChords.com Contact us | Privacy policy | DMCA | Add/correct tabs | Request tabs | Top 50 tabs