>
 >
Grow Or Pay

Grow Or Pay Guitar Tabs

D.A.D - Grow Or Pay chords, tabs, tablatures, lyrics

Guitar lessons | Add/correct | Request | Top 50 tabs Artists:  A B C D E F G H I J K L M N O P Q R S T U V W X Y Z 0-9

Grow Or Pay Guitar Tabs – D.A.D

CD, Sheet music, Poster

Do you like Grow Or Pay? Share with your friends now
TabsTabs v2

Cedde
Christian Pedersen

Hope you enjoy playing it. It should be good enough for playing.

Nu er det rigtigt

Intro:

e ---------2---0---|-2-------3-------|-------0-2---0---|---------2-------|
h -------0---------|-3---------------|-----1-----------|-------0---------|
g -----0-----------|-2---------------|---0-------------|-----2-----------|
d ---2-------------|-0---------------|-----------------|---1-------------|
a -----------------|-----------------|-3---------------|-2---------------|
E -0---------------|-----------------|-----------------|-----------------|

e ---------7-------|-6-------7-------|-----------------|---------2-------|
h -------0-----8---|-7---------------|-----------------|-------0---------|
g -----0-----------|-----------------|-----------------|-----2-----------|
d ---2-------------|-----------------|-----2-5-4---2---|---1-------------|
a -----------------|-----------------|---3-------------|-2---------------|
E -0---------------|-----------------|-2---------------|-----------------|

(drums enter)

Rhy.Fig.1

em bm D A

e ---------2---0---|-----------------|-------0-2---0---|-0~--------------|
a -------0---------|-3~--------------|-----3-----------|-2~--------------|
g ----0-----------|-4~--------------|---2-------------|-2~-------------|
d --2-------------|-4~--------------|-0---------------|-2~-------------|
a -----------------|-2~--------------|-----------------|-0~--------------|
E -0---------------|-----------------|-----------------|-----------------|

end Rhy.Fig.1

am C

e -------5-7---5---|-7~--------------|
h -----5-----------|-8~--------------|
g -----------------|-9~--------------|
d ---7-------------|-10~-------------|
a -0---------------|-10~-------------|
E -----------------|-8~--------------|

C em G D

e --------8-12-----|-7---------------|-10----7---------|-2---------------|
h ------8----------|-------8-7^(8)^7-|-------------8---|-3---------------|
g -----------------|-----------------|-----------------|-2---------------|
d ---10------------|-----------------|-----------------|-0---------------|
a -----------------|-----------------|-----------------|-----------------|
E -8---------------|-----------------|-----------------|-----------------|

1. Verse:

(Here it's easy to play a picking which sounds like the original.

Just listen to the song and try to play it, I think it'll work!

But it also sounds well if you play a stright rhythm.)

D

There was a real thin line

A bm

Between right or wrong

D

In those Walt Disney times

A G

When my parents were young

D em

But the line has disappeared

G

And you wonder where it hides

A

And you wanna go out, but you stay inside



1. Chorus:

(One guitar plays a straight rhythm, a second guitar

plays Rhy.Fig.1 (with light variations))

em bm

I got run over by truth one day

D A

Didn't see the red light

em bm

Since the accident I've walked this way

D A

I only did what felt right

am C

But from this day on it's either grow or pay! (Grow or pay)

em G

'Coz I got run over by truth one day



2. Verse:

Sometimes the sky's so grey

That you cannot see beyond it

And even the wildest of dreams

Can't take those lines from your forehead

Yeah! I know there's a bill

And it's gonna make it's way somehow

With and excuse and a bow, I'll be paying it now



2. Chorus:

(like 1. Chorus, then)

am C




Solo:

em bm D A em D
e ----------------------------------------------------------------------|
h ----------------------------------------------------------------------|
g ----------------------------------------------------------------------|
d ---5-----5-----4----------4-----4-----2----------5-----5-----4--------|
a -7-----7-----7----------5-----5-----5----------7-----7-----7----------|
E ----------------------------------------------------------------------|

A em D A

e ----------------------------------------------------------------------|
h ----------------------------------------------------------------------|
g ----------------------------------------------------------------------|
d ---7------7-----7-----7-----7-----5-------5-5-5-4---4---2h4p2---0---2-|
a -7-----7------7-----7-----7-----7-------------------------------------|
E ----------------------------------------------------------------------|

G em bm D A em

e ----------------------------------------------------------------------|
h ----------------7h8p7---7-7---------7-----5-7-5---------8-7----8------|
g ------9--------x-----9------7-7-----7-----7-7-6--------x-----9--------|
d -0----9-------x---------------------------------------x---------------|
a ------7---------------------------------------------------------------|
E ----------------------------------------------------------------------|

D A

e ---------------------------0-------0--0----------|
h ---10----------10---------10------10/14----------|
g --x---12-11-12----12---11-----------sl.----------|
d -x-----------------------------------------------|
a -------------------------------------------------|
E -------------------------------------------------|

| E5 | D5 | C5 | B5 |

| E5 | C5 | F#5 | A5 |

| C5 | C5 |

(Grow or pay)



3. Chorus:

em bm

I got run over by the truth one day

em bm

And since the accident I've walked this way

D A

Didn't see the red light

am C

But from this day on it's either grow or pay! (Grow or pay)



Outro:

'Coz I got run over by the truth one day.

C

w/Rhy.Fig.1 ...
e --------8-12---8-|
h ------8----------|
g -----------------|
d ---10------------|
a -----------------|
E -8---------------|

C em bm

w/Rhy.Fig.1 ...
e --------8-12-----|-7-------------------|-----------------|
h ------8----------|-----(8)^7^(8)^7^(8)-|-7~~~------------|
g -----------------|---------------------|-------4~~~------|
d ---10------------|---------------------|-----------------|
a -----------------|---------------------|-----------------|
E -8---------------|---------------------|-----------------|

(drums now fade out slowly)

w/Rhy.Fig.1 (without 1st & 2nd bar) ...

sl.

...
e --------8-12\-8--|-----------------|---------2-------|
h ------8----------|-----------------|-------0---------|
g -----------------|-------0---------|-----2-----------|
d ---10------------|-----2-------2-4-|---1-------------|
a -----------------|---2-------0-----|-2---------------|
E -8---------------|-0-------2-------|-----------------|

Harm.

e -0~--------------|-12--------------||
h -0~--------------|-12--------------||
g -1~--------------|-----------------||
d -2~--------------|-----------------||
a -2~--------------|-----------------||
E -0~--------------|-----------------||





Comments


Popular D.A.D tabs & chords
Down That Dusty 3'rd World Road Chords
Bad Crazyness Tabs
Day Of Wrong Moves Tabs
Home Alone 1 Tabs
Jonnie Tabs
Laugh N A Half 1 Tabs
Nineteenhundredandyesterday Intro Tabs
What's The Matter Tabs
Laugh N A Ukulele
Lords Of The Atlas Ukulele


Song lyrics



↑ Back to top | Tablatures and chords are parodies/interpretations of the original songs. You may use it for private study, scholarship, research or language learning purposes only
© 2014 AZChords.com Contact us | Privacy policy | DMCA | Add/correct tabs | Request tabs | Top 50 tabs