» » »

D.A.D, Sleeping My Day Away Bass tabs (ver.1)

Artists:  A B C D E F G H I J K L M N O P Q R S T U V W X Y Z # 

Sleeping My Day Away Bass tabs (ver.1)

D.A.D Tabs
 Rating:
4/5 (4 votes)
Sleeping My Day Away lessons Tabs too difficult? Try these video lessons and learn fast
                By Christian Pedersen

Intro x4
(0:06)
G|------------------------------------------------------------------|
D|------------------------------------------------------------------|
A|--1-1-1-1-1-1-1-1-----------------6-6-6-6-6-6-6-6-6-6-6-6-6-6-6-6-|
E|------------------2-2-2-2-2-2-2-2---------------------------------|

Verse
(0:33)
G|----------------------------------------------------------|
D|----------------------------------------------------------|
A|--1-1-1-1-1-1-1-1--3-3-3-3-3-3-3-3--4-4-4-4-4-4-4-4-------|
E|----------------------------------------------------------|

G|--------------------------------------------------------------------|
D|--------------------------------------------------------------------|
A|------------------4-4-4-4-4-4-4-4--6-6-6-6-6-6-6-6--1-1-1-1-1-1-1-1-|
E|--4-4-4-4-4-4-4-4---------------------------------------------------|

G|----------------------------------------------------------|
D|----------------------------------------------------------|
A|--1-1-1-1-1-1-1-1--3-3-3-3-3-3-3-3--4-4-4-4-4-4-4-4-------|
E|----------------------------------------------------------|

G|--------------------------------------------------------------------|
D|--------------------------------------------------------------------|
A|------------------4-4-4-4-4-4-4-4--6-6-6-6-6-6-6-6-6-6-6-6-6-6-6-6--|
E|--4-4-4-4-4-4-4-4---------------------------------------------------|

Chorus x4
(0:59)
G|---------------------------------------------------------------------|
D|---------------------------------------------------------------------|
A|--1-1-1-1-1-1-1-1-----------------6-6-6-6-6-6-6-6-6-6-6-6-6-6-6-6----|
E|------------------2-2-2-2-2-2-2-2------------------------------------|

2 verse
G|----------------------------------------------------------|
D|----------------------------------------------------------|
A|--1-1-1-1-1-1-1-1--3-3-3-3-3-3-3-3--4-4-4-4-4-4-4-4-------|
E|----------------------------------------------------------|

G|--------------------------------------------------------------------|
D|--------------------------------------------------------------------|
A|------------------4-4-4-4-4-4-4-4--6-6-6-6-6-6-6-6--1-1-1-1-1-1-1-1-|
E|--4-4-4-4-4-4-4-4---------------------------------------------------|

G|----------------------------------------------------------|
D|----------------------------------------------------------|
A|--1-1-1-1-1-1-1-1--3-3-3-3-3-3-3-3--4-4-4-4-4-4-4-4-------|
E|----------------------------------------------------------|

G|--------------------------------------------------------------------|
D|--------------------------------------------------------------------|
A|------------------4-4-4-4-4-4-4-4--6-6-6-6-6-6-6-6-6-6-6-6-6-6-6-6--|
E|--4-4-4-4-4-4-4-4---------------------------------------------------|

Chorus 2 x4
G|---------------------------------------------------------------------|
D|---------------------------------------------------------------------|
A|--1-1-1-1-1-1-1-1-----------------6-6-6-6-6-6-6-6-6-6-6-6-6-6-6-6----|
E|------------------2-2-2-2-2-2-2-2------------------------------------|

solo: verse
            
Submit corrections

comments powered by Disqus
↑ Back to top | D.A.D Bass for Sleeping My Day Away. Lyrics for acoustic guitar and electric guitar. Tablatures and chords are parodies/interpretations of the original songs. You may use it for private study, scholarship, research or language learning purposes only