» » »

D.A.D, Grow Or Pay Tabs (ver.2)

Artists:  A B C D E F G H I J K L M N O P Q R S T U V W X Y Z # 

Grow Or Pay Tabs (ver.2)

D.A.D Tabs
Rating:
0/5 (0 votes)
Grow Or Pay lessons Tabs too difficult? Try these video lessons and learn fast
                (Intro)




D:A:D - Grow or Pay INTRO

----------------7-----------7-------|----------------------|
------------8-------8-------8---9---|----------------------|
--------9-------------------9-------|----------------------|
----9-----------------------9-------|---------------9------|
7---------------------------7-------|-----------7----------|
------------------------------------|----------------------|

------------------------------------7---|------------------|
----8---------------------------7-------|------------------|
9-------9-------------------7-----------|------------------|
------------9-----------7---------------|-----------10-----|
--------------------5-------------------|-------8----------|
----------------------------------------|------------------|

---------8-------8---------|-------------------------------|
-----9-----------9----10---|-------------------------9-----|
10---------------10--------|--------------------10---------|
-----------------10--------|-----------10------------------|
-----------------8---------|-------8-----------------------|
---------------------------|-------------------------------|

------------------------------7---|------------------------|
--------------------------7-------|------------------------|
10--------------------7-----------|------------------------|
-----10-----------7---------------|------------------------|
--------------5-------------------|------------------------|
----------------------------------|------------------------|


===========================================================
==                 TABLATURE EXPLANATION                 ==
===========================================================

----------                ----------                ----t---|
----5h8--- Hammeron       ----(8)--- Ghost          ----6---| Tap
----------                ---------- Note           --------|
----5p8--- Pulloff        ----------                --------|

----------                ----------                -----p--|
----5/8--- Slide Up       -----x---- Dead           -----7--| Pop
----------                ---------- Note           --s-----|
----5\8--- Slide Down     ----------                --5-----| Slap

----------                ||------|| Repeat         --------|
----5~~~-- Vibrato        ||*----*||                ---5^---| Bend
----------                ||*----*||                --------|
----------                ||------||                --------|

----------                ----------                --------|
-4:------- Time           ----------                --------|
-4:------- Signature      ----------                --------|
----------                ----------                --------|


===========================================================
            

comments powered by Disqus
↑ Back to top | D.A.D Tabs for Grow Or Pay. Lyrics for acoustic guitar and electric guitar. Tablatures and chords are parodies/interpretations of the original songs. You may use it for private study, scholarship, research or language learning purposes only