>
 >
Sleeping My Day Away

Sleeping My Day Away Guitar Tabs

D.A.D - Sleeping My Day Away chords, tabs, tablatures, lyrics

Guitar lessons | Add/correct | Request | Top 50 tabs Artists:  A B C D E F G H I J K L M N O P Q R S T U V W X Y Z 0-9

Sleeping My Day Away Guitar Tabs – D.A.D

CD, Sheet music, Poster

Do you like Sleeping My Day Away? Share with your friends now
Bass TabsChordsTabsTabs v2Tabs v3Tabs v4Ukulele
##############################
# DAD - Sleeping My Day Away #
#                            #
#                            #
#    Enjoy                   #
##############################

[0:00]
Intro:

 E|----------|
 B|----------|
 G|----3-----|
 D|----3-----|          a couple of times, and then:
 A|----1-----|
 E|----------|


[0:06]
Intro Guitar 1:
 E|-----------------|
 B|-----------------|
 G|--3-------8------|
 D|--1---4---6------|
 A|--1---4---6------|
 E|------2----------|

Intro Guitar 2:
 E|----------------------------------------|
 B|----------------------------------------|
 G|----------------------------------------|
 D|----------------------------------------|
 A|-------8------8-----8------4-----6------|
 E|---4/6----4/6---4/6----4/6---4/6--------| x2

 E|----------------------------------|
 B|----------------------------------|
 G|----------------------------------|
 D|-----------8----------------------|
 A|-----8-----------8-----9-9\8\6----|
 E|-4/6---4/6---4/6---4/6------------|

 E|------------------------------------|
 B|------------------------------------|
 G|------------------------------------|
 D|------------------------------------|
 A|------8-----8-----8-----4-4/6-8/6---|
 E|--4/6---4/6---4/6---4/6-------------|

[0:33]
Verse:
“Mumbling goodmorning & raising my head…”

 E|-----------------------------|
 B|-----------------------------|
 G|--3---5---6-------6---8---3--|
 D|--1---3---4---6---4---8---1--|
 A|--1---3---4---4---4---6---1--|
 E|--------------4--------------|

Second time: Don't play last chord =)


[0:59]
Chorus Guitar 1:
“From the pale lips of a youth who lay…”

 E|--------------------|
 B|--------------------|
 G|--3-------8---------|
 D|--1---4---6---------|       x4
 A|--1---4---6---------|
 E|------2-------------|

Chorus Guitar 2:
 E|---------------------------|
 B|---------------------------|
 G|---------------------------|
 D|---------------------------|         x4
 A|-------8-------------4-----|
 E|---4/6-----------4/6-------|

[1:28]
Intro

[1:34]
Verse 2 is basicly same as the first one exept
for a little thing like this in the middle:
Guitar 2:
 E|-------------------|
 B|-------------------|
 G|---5h6--3-----6----|
 D|----------3-6------|
 A|-------------------|
 E|-------------------|

[2:00]
Chorus

[2:31]
Intro

[2:43]
Solo: Guitar 2

 E|-----------------------------------|
 B|-----------------------------------|
 G|-----------------------------------|
 D|-----------------------------------|
 A|----6/8-8-8\6-6-6\4-4-4p3h4/6/8-8~-|
 E|-6---------------------------------|

 E|------------------------------|
 B|------------------------------|
 G|------------------------------|
 D|-----8-10-10b11-8\6\4---4-----|   I couldn't figure out the
 A|---8------------------6---6---|   "blur" at the end :/
 E|------------------------------|

 E|------------------------------------|
 B|------------------------------------|
 G|------------------------------------|
 D|--------------------8-----13\10/11--|
 A|---8---8---8-9--6-8b-8b-------------|
 E|----8b--8b--------------------------|

 E|---------------------------------------|
 B|--------------------------------10h11~-|
 G|--------------8h10p8----8-10-11--------|
 D|-------10-11-----------8-8--8----------|
 A|---8h9-------8h9-----------------------|
 E|---------------------------------------|

 E|---------------------------------|
 B|---------------7-7-6-3-----------|
 G|-6-6-3-6-6-3-6-6-6-5-4-----------| During this last one,
 D|-6-6-3-6-6-3-6-------------------| guitar 1 comes back in:
 A|---------------------------------|
 E|---------------------------------|

Guitar 1:
 E|-----------------|
 B|-----------------|
 G|--3-------8------|    Play this until:
 D|--1---4---6------|
 A|--1---4---6------|
 E|------2----------|

[3:59]
 E|--------------------------------|
 B|--------------------------------|
 G|-------8-------8----------------|
 D|---4---6---4---6---4--------3~~-|
 A|---4---6---4---6---2--------1~~-|
 E|---2-------2-------2--------1~~-|





Comments


Popular D.A.D tabs & chords
Everything Glows Bass Tabs
Sleeping My Day Away Bass Tabs
Havana Affair Tabs
Reconstucdead Tabs
Rim Of Hell Tabs
Scare Yourself 1 Tabs
Simpatico Tabs
So What? 1 Tabs
Nineteenhundredandyesterday Ukulele
Sleeping My Day Away Ukulele


Song lyrics



↑ Back to top | Tablatures and chords are parodies/interpretations of the original songs. You may use it for private study, scholarship, research or language learning purposes only
© 2014 AZChords.com Contact us | Privacy policy | DMCA | Add/correct tabs | Request tabs | Top 50 tabs