» » »

Everything Glows Tabs (ver.3)

Artists:  A B C D E F G H I J K L M N O P Q R S T U V W X Y Z # 

Everything Glows Tabs (ver.3)

D.A.D
Rating:
0/5 (0 votes)

Hard to play? Try these video lessons and learn fast.
                Intro/stanza:
e----------------|
H-16-16---16-16--|
G--x--x----x--x--|Continue until the "Still my eyes are closed"-part, then play:
D-13-16---13-13--|
A----------------|
E----------------|

e-----------------------|
H-----------------------|
G--4---0---3----5---0---|
D-----------------------|
A-----------------------|
E-----------------------|
"Still my eyes are closed"

 Chorus:
e-------------------|-------------------|
H-------------------|-------------------|
G-8---8--x-x-x--8---|-------------------| x 3
D-8---8--x-x-x--8---|-5---5--x-x-x--5---|
A-6---6--x-x-x--6---|-5---5--x-x-x--5---|
E-------------------|-3---3--x-x-x--3---|
"Days when life just grabs your shoulder"


e-----------------|-----------------|
H-----------------|-----------------|
G-3-3---x-5---5---|-----------------|
D-3-3---x-5---5---|-5-x-x-x-5-------| X1
A-1-1---x-3---3---|-5-x-x-x-5-------|
E-----------------|-3-x-x-x-3-------|
"Still my eyes are closed"

NB: You have to listen to the song to get the rythm in the chorus right.


After the chorus:
e-1/6~~-(6)\3~~-|
H---------------|
G---------------| X4
D---------------|
A---------------|
E---------------|

Play the stanza again.


And then:
e-----------------------|
H-----------------------|
G--4---0---3----5---0---|
D-----------------------| X2
A-----------------------|
E-----------------------|
"Still my eyes are closed"


Chorus:
e-------------------|-------------------|
H-------------------|-------------------|
G-8---8--x-x-x--8---|-------------------| x 3
D-8---8--x-x-x--8---|-5---5-x-x-x---5---|
A-6---6--x-x-x--6---|-5---5-x-x-x---5---|
E-------------------|-3---3-x-x-x---3---|

e-----------------|-------------------|
H-----------------|-------------------|
G-3-3---x-5---5---|-------------------| x 2
D-3-3---x-5---5---|-5-x-x-x-5---------|
A-1-1---x-3---3---|-5-x-x-x-5---------|
E-----------------|-3-x-x-x-3---------|

e-----------------------|
H-----------------------|
G--4---0---3----5---0---|
D-----------------------| X2
A-----------------------|
E-----------------------|
"Still my eyes are closed"

And then:
e-1/6~~-(6)\3~~-|
H---------------|
G---------------| X4
D---------------|
A---------------|
E---------------|

Solo:
e-----------------|-----------------|-----------------|-----------------|
H-----------------|-----------------|-----------------|-----------------|
G-----------------|-----------------|-----------------|-----------------|
D-----------------|-----------------|-----------------|-----------------|
A-1-------3---5---|-----------------|-1-------3---5/6-|-5~~~~~~~~~~~~~~~|
E-----------------|-3~~~~~~~~~~~~~~~|-----------------|-----------------|

e-----------------|-----------------|-----------------|-----------------|
H-----------------|-----------------|-----------------|-----------------|
G-----------------|-----------------|-----------------|-----------------|
D-----------------|-----------------|-----------------|-----------------|
A-1-------3---5---|-----------------|-5-------1---3---|-----------------|
E-----------------|-3~~~~~~~~~~~~~~~|---3-------------|-3~~~~~~~~~~~~~~~|

Chorus:
e-------------------|-------------------|
H-------------------|-------------------|
G-8---8--x-x-x--8---|-------------------| x 3
D-8---8--x-x-x--8---|-5---5-x-x-x---5---|
A-6---6--x-x-x--6---|-5---5-x-x-x---5---|
E-------------------|-3---3-x-x-x---3---|

e-----------------|-------------------|
H-----------------|-------------------|
G-3-3---x-5---5---|-------------------| x 2
D-3-3---x-5---5---|-5-x-x-x-5---------|
A-1-1---x-3---3---|-5-x-x-x-5---------|
E-----------------|-3-x-x-x-3---------|

Outro:

e-----------------------|
H-----------------------|
G--4---0---3----5---0---|
D-----------------------| fade out
A-----------------------|
E-----------------------|
"Still my eyes are closed"
            
Hard to play? Try these video lessons and learn fast. | Correct




comments powered by Disqus
↑ Back to top | Tablatures and chords are parodies/interpretations of the original songs. You may use it for private study, scholarship, research or language learning purposes only