>
 >
Everything Glows

Everything Glows Guitar Tabs

D.A.D - Everything Glows chords, tabs, tablatures, lyrics

Guitar lessons | Add/correct | Request | Top 50 tabs Artists:  A B C D E F G H I J K L M N O P Q R S T U V W X Y Z 0-9

Everything Glows Guitar Tabs – D.A.D

CD, Sheet music, Poster

Do you like Everything Glows? Share with your friends now
Bass TabsTabsTabs v2Tabs v3Tabs v4
Hello, my name is Frederik. 
I come from Denmark. This is my first tab here.. But when it comes to "Everything
Glows" this is the best tab you'll find on the net... 
(I think)
Hope you like it!

Intro:
e|-------------------------------------||
B|-------------------------------------||
G|-------999-8-555---------------------||
D|-------999-8-555-55555555------------||
A|-------777-6-333-55555555------------|| x4 
E|-----------------33333333------------||

Verse:
e|-------------------------------------||
B|-------------------------------------||
G|-------33333333-555------------------||
D|-------33333333-555-555--------------||
A|-------11111111-333-555--------------|| x4
E|--------------------333--------------||

When you come to the bridge just play the intro
But when you come to the "still my eyes are closed" part, you play:

e|-----------------------||
B|-----------------------||
G|--4---0---3----5---0---||
D|-----------------------||
A|-----------------------||
E|-----------------------||
 "still my eyes are closed"

Chorus:
e-------------------|-------------------|
H-------------------|-------------------|
G-8---8--x-x-x--8---|-------------------| x 3
D-8---8--x-x-x--8---|-5---5--x-x-x--5---|
A-6---6--x-x-x--6---|-5---5--x-x-x--5---|
E-------------------|-3---3--x-x-x--3---|
"Days when life just grabs your shoulder"

e-----------------|-----------------|
H-----------------|-----------------|
G-3-3---x-5---5---|-----------------|
D-3-3---x-5---5---|-5-x-x-x-5-------| X1
A-1-1---x-3---3---|-5-x-x-x-5-------|
E-----------------|-3-x-x-x-3-------|
"Still my eyes are closed"

After the chorus:
e-1/6~~-(6)\3~~-|
H---------------|
G---------------| X4
D---------------|
A---------------|
E---------------|

Solo:
e-----------------|-----------------|-----------------|-----------------|
H-----------------|-----------------|-----------------|-----------------|
G-----------------|-----------------|-----------------|-----------------|
D-----------------|-----------------|-----------------|-----------------|
A-1-------3---5---|-----------------|-1-------3---5/6-|-5~~~~~~~~~~~~~~~|
E-----------------|-3~~~~~~~~~~~~~~~|-----------------|-----------------|

e-----------------|-----------------|-----------------|-----------------|
H-----------------|-----------------|-----------------|-----------------|
G-----------------|-----------------|-----------------|-----------------|
D-----------------|-----------------|-----------------|-----------------|
A-1-------3---5---|-----------------|-5-------1---3---|-----------------|
E-----------------|-3~~~~~~~~~~~~~~~|---3-------------|-3~~~~~~~~~~~~~~~|




Outro:
e-----------------------|
H-----------------------|
G--4---0---3----5---0---|
D-----------------------| fade out
A-----------------------|
E-----------------------|
"Still my eyes are closed"


Lyrics:

Verse:
I keep moving into myself
I keep all my hate to myself
I keep the polaroids of my hell
I keep all my hope to myself

Bridge:
Days when life does man a favor
Days when everything glows
Days when luck is handed over
Still my eyes are closed

Chorus:
Days when life just grabs your shoulder
Days when everything flow
Luck has found its rightful owner
Still my eyes are closed..

Verse:
I know that your eyes are on fire
I know that your ears are on me
And because my thinking is quiet
I'm the calm and deep blue sea

Bridge:
Days when life does man a favor...

Chorus:
Days when life just grabs your shoulder...



| And that's it.. Hope you have fun, I did! |





Comments


Popular D.A.D tabs & chords
Girl Nation Bass Tabs
Bad Craziness Chords
No Hero Chords
Empty Heads Intro Tabs
Home Alone 1 Tabs
Something Good 1 Tabs
Zcmi Tabs
Down That Dusty 3rd World Road Ukulele
Laugh N A 1 Ukulele
Money Always Takes The Place Of Life Ukulele


Song lyrics



↑ Back to top | Tablatures and chords are parodies/interpretations of the original songs. You may use it for private study, scholarship, research or language learning purposes only
© 2014 AZChords.com Contact us | Privacy policy | DMCA | Add/correct tabs | Request tabs | Top 50 tabs