>
 >
Live And Learn 1

Live And Learn 1 Guitar Tabs

Crush 40 - Live And Learn 1 chords, tabs, tablatures, lyrics

Guitar lessons | Add/correct | Request | Top 50 tabs Artists:  A B C D E F G H I J K L M N O P Q R S T U V W X Y Z 0-9

Live And Learn 1 Guitar Tabs – Crush 40

CD, Sheet music, Poster

Do you like Live And Learn 1? Share with your friends now
Bass TabsTabsTabs v2Tabs v3Tabs v4Tabs v5
This is a yet another live and learn tab.  But I have made it even more
 accurate, It has an updated solo some of the fils from guitar 2, and some 
redone parts, like the first part of the chorus. Please rate and comment. 
Good luck learning it.
 

Intro
|------------------------------------------|
|--------5----5/7---------5----5/7---------|
|--------4----4/6---------4----4/6---------|
|------------------------------------------|
|--4-4---------------0-0-------------------|
|------------------------------------------|

|------------------------------------------|
|--------5-----5/7-------------------------|
|--------4-----4/6-------------------------|
|--------------------------6---5--4--2-----|  
|--------------------------6---5--4--2-----|
|---0-0--------------------4---3--2--0-----|

|------------------------------------------|
|--------5----5/7---------5----5/7---------|
|--------4----4/6---------4----4/6---------|
|------------------------------------------|
|--4-4---------------0-0-------------------|
|------------------------------------------|

|------------------------------------------|
|--------5-----5/7-------------------------|
|--------4-----4/6-------------------------|
|--------------------------6---5--4--2-----|  
|--------------------------6---5--4--2-----|
|---0-0--------------------4---3--2--0-----|


|------------------------------------------|
|------------------------------------------|
|--------4-------4------4----4/6-----------|
|------------------------------------------|
|---4-4-----4-4----4-4----4----------------|
|------------------------------------------|

Verse
 /  Guitar 1 
|  |-------------------------------------------------------------------|
|  |-------------------------------------------------------------------|
|  |--6-6-6-6-6-6-6-6-6-6-6-6-6-6-6-6-2-2-2-2-2-2-2-2-2-2-2-2-2-2-2-2--|
|  |--6-6-6-6-6-6-6-6-6-6-6-6-6-6-6-6-2-2-2-2-2-2-2-2-2-2-2-2-2-2-2-2--|
|  |--4-4-4-4-4-4-4-4-4-4-4-4-4-4-4-4-0-0-0-0-0-0-0-0-0-0-0-0-0-0-0-0--|
|  |-------------------------------------------------------------------|
| 
|    Guitar 2
|  |------------------------------------------------------------------|
|  |------------------------------------------------------------------|
|  |----4--4--------4--4----------------4--4--------4--4--------------| 
|  |----------4--4-------4--4--2--2-----------4--4--------4--4--2--2--| 
|  |------------------------------------------------------------------|
|  |------------------------------------------------------------------|
 \

 /     Guitar 1
|   |----------------------------------------------------------|
|   |----------------------------------------------------------|
|   |----------------------------------------------------------|
|   |--2-2-2-2-2-2-2-2-2-2-2-2-2-2-2-2---4/6--4/6--6--5--4--2--|
|   |--2-2-2-2-2-2-2-2-2-2-2-2-2-2-2-2---4/6--4/6--6--5--4--2--|
|   |--0-0-0-0-0-0-0-0-0-0-0-0-0-0-0-0---2/4--2/4--4--3--2--0--|
|   
|     Guitar 2
|   |---------------------------------|
|   |---------------------------------|
|   |----4--4--------4--4-------------| 
|   |----------4--4-------4--4--2--2--| 
|   |---------------------------------|
|   |---------------------------------|
 \

 / Guitar 1 
| |-------------------------------------------------------------------------|
| |-------------------------------------------------------------------------|
| |-6-6-6-6-6-6-6-6-6-6-6-6-6-6-6-6-2-2-2-2-2-2-2-2-2-2-2-2-2-2-2-2--2--2--1|
| |-6-6-6-6-6-6-6-6-6-6-6-6-6-6-6-6-2-2-2-2-2-2-2-2-2-2-2-2-2-2-2-2---------|
| |-4-4-4-4-4-4-4-4-4-4-4-4-4-4-4-4-0-0-0-0-0-0-0-0-0-0-0-0-0-0-0-0---------|
| |-------------------------------------------------------------------------|
| 
|    Guitar 2
| |-----------------------------------------------------------------|
| |-----------------------------------------------------------------|
| |---4--4--------4--4----------------4--4--------4--4--------------| 
| |---------4--4-------4--4--2--2-----------4--4--------4--4--2--2--| 
| |-----------------------------------------------------------------|
| |-----------------------------------------------------------------|
 \

 / Guitar 1
|-----------------------------------------------------------------|
|-----------------------------------------------------------------|
|-----------------------------------------------------------------|
|--2-2-2-2-2-2-2-2-2-2-2-2-2-2-2-2--2--2--1----4/6--4/6--6--4/6---|
|--2-2-2-2-2-2-2-2-2-2-2-2-2-2-2-2-------------4/6--4/6--6--4/6---|
|--0-0-0-0-0-0-0-0-0-0-0-0-0-0-0-0-------------2/4--2/4--4--2/4---|
|
| Guitar 2
| |-------------------------------|
| |-------------------------------|
| |--4--4--------4--4-------------| 
| |--------4--4-------4--4--2--2--| 
| |-------------------------------|
| |-------------------------------|
 \

Prechorus
|-----------------------------------------------|
|-----------------------------------------------|
|-2------4------6-------------------------------|
|-2-(x8)-4-(x8)-6-(x8)-2--4--6--7--9------------|
|-0------2------4------2--4--6--7--9------------|
|----------------------0--2--4--5--7------------|

|-----------------------------------------------|
|-----------------------------------------------|
|-2------4------6------5--6--8--9---------------|
|-2-(x8)-4-(x8)-6-(x8)-5--6--8--9---------------|
|-0------2------4------3--4--6--7---------------|
|-----------------------------------------------|

|-----------------------------------------------|
|-----------------------------------------------|
|-2------4------6-------------------------------|
|-2-(x8)-4-(x8)-6-(x8)-2--4--6--7--9------------|
|-0------2------4------2--4--6--7--9------------|
|----------------------0--2--4--5--7------------|

|---------------------------------19--(push then pull whammy bar)
|-----------------------------------------------|
|-2-------5------5--5--7--7---------------------|
|-2-(x16)-5-(x8)-5--5--7--7---------------------|
|-0-------3------3--3--5--5---------------------|
|-----------------------------------------------|



Chorus
|---------------------------------------------|
|------5-----5/7----5---2---------------------|
|------4-----4/6----4---2---------------------|
|---------------------------------------------|
|-4-4-----------------------------------------|
|---------------------------------------------|

|--------------------------------------------|
|--------------------------------------------|
|-----------4--4--------------4-3------------|
|------4-6-------7-6------------------4------|
|--------------------------4------------2/4--|
|-----4------------------2-------------------|


|--------------------------------------------|
|------5-----5/7----5---2--------------------|
|------4-----4/6----4---2--------------------|
|--------------------------------------------|
|-4-4----------------------------------------|
|--------------------------------------------|

|---------------------------------------------|
|---------------------------------------------|
|----------4--4-6-4------5--5----6----8-------|
|-----4-6----------------5--5----6----8-------| 
|------------------------3--3----4----6-------|
|----4----------------------------------------|


|---------------------------------------------|
|------5-----5/7----5---2---------------------|
|------4-----4/6----4---2---------------------|
|---------------------------------------------|
|-4-4-----------------------------------------|
|---------------------------------------------|

|--------------------------------------------|
|--------------------------------------------|
|-----------4--4--------------4-3------------|
|------4-6-------7-6------------------4------|
|--------------------------4------------2/4--|
|-----4------------------2-------------------|


|--------------------------------------------|
|------5-----5/7----5---2--------------------|
|------4-----4/6----4---2--------------------|
|--------------------------------------------|
|-4-4----------------------------------------|
|--------------------------------------------|


|----------------------------------------------------------------------|
|----------------------------------------------------------------------|
|----------4--4-6-4------5--5----6----8--9--6--4/6--4--2----2--4--4----|
|-----4-6----------------5--5----6----8--9--6--4/6--4--2----2--4--4-(hold down whammy bar)
|------------------------3--3----4----6--7--4--2/4--2--0----0--2--2----|
|----4-----------------------------------------------------------------|


|------------------------------------------------|
|------------------------------------------------|
|--------4-6-------4-9----4-6----4-9-------------|
|------------------------------------------------|
|---4-4---------4-4------------------------------|
|------------------------------------------------|

Verse

 /  Guitar 1 
||--------------------------------------------------------------------------|
||--------------------------------------------------------------------------|
||--6-6-6-6-6-6-6-6-6-6-6-6-6-6-6-6-2-2-2-2-2-2-2-2-2-2-2-2-2-2-2-2--2--2--1|
||--6-6-6-6-6-6-6-6-6-6-6-6-6-6-6-6-2-2-2-2-2-2-2-2-2-2-2-2-2-2-2-2---------|
||--4-4-4-4-4-4-4-4-4-4-4-4-4-4-4-4-0-0-0-0-0-0-0-0-0-0-0-0-0-0-0-0---------|
||--------------------------------------------------------------------------|
| 
|    Guitar 2
|  |------------------------------------------------------------------|
|  |------------------------------------------------------------------|
|  |------------------4----------------------------4------------------| 
|  |---------------2----------------------------2---------------------| 
|  |------------4----------------------------0------------------------|
|  |------------------------------------------------------------------|
 \

 /
|
|---------------------------------------------------------------------------|
|---------------------------------------------------------------------------|
|---------------------------------------------------------------------------|
|--2-2-2-2-2-2-2-2-2-2-2-2-2-2-2-2--2--2--1--6-6-6-6-6-6-6-6-6-6-6-6-6-6-6-6|
|--2-2-2-2-2-2-2-2-2-2-2-2-2-2-2-2-----------6-6-6-6-6-6-6-6-6-6-6-6-6-6-6-6|
|--0-0-0-0-0-0-0-0-0-0-0-0-0-0-0-0-----------4-4-4-4-4-4-4-4-4-4-4-4-4-4-4-4|
|
|   Guitar 2
||-------------------------------------------------------------------------|
||-------------------------------------------------------------------------|
||------------------4----------------------------------------2--1----------| 
||---------------2----------------------------------------2----------------| 
||------------2----------------------------------------2-------------------|
||-------------------------------------------------------------------------|
 \




Prechorus
|-----------------------------------------------|
|-----------------------------------------------|
|-2------4------6-------------------------------|
|-2-(x8)-4-(x8)-6-(x8)-2--4--6--7--9------------|
|-0------2------4------2--4--6--7--9------------|
|----------------------0--2--4--5--7------------|

|-----------------------------------------------|
|-----------------------------------------------|
|-2------4------6------5--6--8--9---------------|
|-2-(x8)-4-(x8)-6-(x8)-5--6--8--9---------------|
|-0------2------4------3--4--6--7---------------|
|-----------------------------------------------|

|-----------------------------------------------|
|-----------------------------------------------|
|-2------4------6-------------------------------|
|-2-(x8)-4-(x8)-6-(x8)-2--4--6--7--9------------|
|-0------2------4------2--4--6--7--9------------|
|----------------------0--2--4--5--7------------|

|---------------------------------19--(push whammy bar in rhythm)
|-----------------------------------------------|
|-2-------5------5--5--7--7---------------------|
|-2-(x16)-5-(x8)-5--5--7--7---------------------|
|-0-------3------3--3--5--5---------------------|
|-----------------------------------------------|

Chorus
|---------------------------------------------|
|------5-----5/7----5---2---------------------|
|------4-----4/6----4---2---------------------|
|---------------------------------------------|
|-4-4-----------------------------------------|
|---------------------------------------------|

|--------------------------------------------|
|--------------------------------------------|
|-----------4--4--------------4-3------------|
|------4-6-------7-6------------------4------|
|--------------------------4------------2/4--|
|-----4------------------2-------------------|


|--------------------------------------------|
|------5-----5/7----5---2--------------------|
|------4-----4/6----4---2--------------------|
|--------------------------------------------|
|-4-4----------------------------------------|
|--------------------------------------------|

|---------------------------------------------|
|---------------------------------------------|
|----------4--4-6-4------5--5----6----8-------|
|-----4-6----------------5--5----6----8-------| 
|------------------------3--3----4----6-------|
|----4----------------------------------------|


|---------------------------------------------|
|------5-----5/7----5---2---------------------|
|------4-----4/6----4---2---------------------|
|---------------------------------------------|
|-4-4-----------------------------------------|
|---------------------------------------------|

|--------------------------------------------|
|--------------------------------------------|
|-----------4--4--------------4-3------------|
|------4-6-------7-6------------------4------|
|--------------------------4------------2/4--|
|-----4------------------2-------------------|


|--------------------------------------------|
|------5-----5/7----5---2--------------------|
|------4-----4/6----4---2--------------------|
|--------------------------------------------|
|-4-4----------------------------------------|
|--------------------------------------------|


|----------------------------------------------------------------------|
|----------------------------------------------------------------------|
|----------4--4-6-4------5--5----6----8--9--6--4/6--4--2----2--4--4----|
|-----4-6----------------5--5----6----8--9--6--4/6--4--2----2--4--4-(hold down whammy bar)
|------------------------3--3----4----6--7--4--2/4--2--0----0--2--2----|
|----4-----------------------------------------------------------------|

Solo

e|-----------------------------------------16--12--9------------------------|
B|-----------------------------------0--2------------12-14-17-14-12---------|
G|------------------------0--1----1---------------------------------13-11-9-|
D|--------2---2--4--2--4-------4---------------------(very fast here)-------|
A|-4-2-4----4---------------------------------------------------------------|
E|--------------------------------------------------------------------------|


e|-------------------------------------------------------12----------|
B|---------------------------------------12--10--------------15--10--|
G|-----------------------------------------------11--9---------------|
D|-16--14---------------14--12---------------------------------------|
A|---------16--14--12-----------16--12-------------------------------|
E|-------------------------------------------------------------------|


e|-----12----14----12--16--14--12--19---------------17----------|
B|--12-12-12-12-12-12--16--12--12--19-------13--16--17--16------|
G|-------------------------------------/13--13--13------17--17--|
D|--------------------------------------------------------------|
A|--------------------------------------------------------------|
E|--------------------------------------------------------------|


e|-------------------------------------------12--10--9--17--|
B|-----------------------------------10b-10-----------------|
G|----------------------------------------------------------|
D|---------------------------17--16-------------------------|
A|--14--16--19--16---14--16---------------------------------|
E|----------------------------------------------------------|


e|-------------------------------------------------------|
B|-------------------------------------------------------|
G|---------------------------------------------------16--|
D|-----------13----13-14-13-14-16-14-16--18--16--14------|
A|--14-12-14----14---------------------------------------|
E|-------------------------------------------------------|


e|------12--11--14--17--16------12--11--11--17--16--21--20--|
B|--13--14--13--17--19--17--13--14--13--13--19--17--22--21--|
G|--14----------------------14------------------------------|
D|----------------------------------------------------------|
A|----------------------------------------------------------|
E|----------------------------------------------------------|



|-----------------------------------------------|
|-----------------------------------------------|
|-2------4------6------7------------------------|
|-2-(x8)-4-(x8)-6-(x8)-7-(x8)-------------------|
|-0------2------4------5------------------------|
|-----------------------------------------------|

|-----------------------------------------------|
|-----------------------------------------------|
|-2------4------6------7------------------------|
|-2-(x8)-4-(x8)-6-(x8)-7-(x8)-------------------|
|-0------2------4------5------------------------|
|-----------------------------------------------|


|----------------------------------------------------|
|----------------------------------------------------|
|-2-------5------5--5--7--7---4-----4-----1-----1----|
|-2-(x16)-5-(x8)-5--5--7--7------4-----4-----1-----1-|
|-0-------3------3--3--5--5--------------------------|
|----------------------------------------------------|


Chorus
|---------------------------------------------|
|------5-----5/7---5---2----------------------|
|------4-----4/6---4---2----------------------|
|---------------------------------------------|
|-4-4-----------------------------------------|
|---------------------------------------------|

|--------------------------------------------|
|--------------------------------------------|
|-----------4--4--------------4-3------------|
|------4-6-------7-6------------------4------|
|--------------------------4------------2/4--|
|-----4------------------2-------------------|


|---------------------------------------------|
|------5-----5/7---5---2----------------------|
|------4-----4/6---4---2----------------------|
|---------------------------------------------|
|-4-4-----------------------------------------|
|---------------------------------------------|

|---------------------------------------------|
|---------------------------------------------|
|----------4--4-6-4------5--5----6----8-------|
|-----4-6----------------5--5----6----8-------| 
|------------------------3--3----4----6-------|
|----4----------------------------------------|

|---------------------------------------------|
|------5-----5/7--5---2-----------------------|
|------4-----4/6--4---2-----------------------|
|---------------------------------------------|
|-4-4-----------------------------------------|
|---------------------------------------------|

|--------------------------------------------|
|--------------------------------------------|
|-----------4--4--------------4-3------------|
|------4-6-------7-6------------------4------|
|--------------------------4------------2/4--|
|-----4------------------2-------------------|


|---------------------------------------------|
|------5-----5/7---5---2----------------------|
|------4-----4/6---4---2----------------------|
|---------------------------------------------|
|-4-4-----------------------------------------|
|---------------------------------------------|

|---------------------------------------------|
|---------------------------------------------|
|----------4--4-6-4------5--5----6----8-------|
|-----4-6----------------5--5----6----8-------| 
|------------------------3--3----4----6-------|
|----4----------------------------------------|

for last chorus play this:

|---------------------------------------------|
|------5-----5/7---5---2----------------------|
|------4-----4/6---4---2----------------------|
|---------------------------------------------|
|-4-4-----------------------------------------|
|---------------------------------------------|

|---------------------------------------------|
|--------------------0--2---------------------|
|---------------------------------------------|
|---------------------------------------------|
|-----------0--2--4---------------------------|
|--0--2--4------------------------------------|


|---------------------------------------------|
|------5-----5/7---5---2----------------------|
|------4-----4/6---4---2----------------------|
|---------------------------------------------|
|-4-4-----------------------------------------|
|---------------------------------------------|

|---------------------------------------------|
|--------------------0--2---------------------|
|---------------------------------------------|
|---------------------------------------------|
|-----------0--2--4---------------------------|
|--0--2--4------------------------------------|

|---------------------------------------------|
|------5-----5/7---5---2----------------------|
|------4-----4/6---4---2----------------------|
|---------------------------------------------|
|-4-4-----------------------------------------|
|---------------------------------------------|

|---------------------------------------------|
|--------------------0--2---------------------|
|---------------------------------------------|
|---------------------------------------------|
|-----------0--2--4---------------------------|
|--0--2--4------------------------------------|


|---------------------------------------------|
|------5-----5/7---5---2----------------------|
|------4-----4/6---4---2----------------------|
|---------------------------------------------|
|-4-4-----------------------------------------|
|---------------------------------------------|

|---------------------------------------------|
|--------------------0--2---------------------|
|---------------------------------------------|
|---------------------------------------------|
|-----------0--2--4---------------------------|
|--0--2--4------------------------------------|


|--------------------------------|
|--------------------------------|
|--9--6--4/6--4--2----2--4--4----|
|--9--6--4/6--4--2----2--4--4-(Hold down whammy bar) 
|--7--4--2/4--2--0----0--2--2----|
|--------------------------------|

        
|------------------------------------------|
|--------5----5/7---------5----5/7---------|
|--------4----4/6---------4----4/6---------|
|------------------------------------------|
|--4-4---------------0-0-------------------|
|------------------------------------------|

|------------------------------------------|
|--------5-----5/7-------------------------|
|--------4-----4/6-------------------------|
|--------------------------6---5--4--2-----|  
|--------------------------6---5--4--2-----|
|---0-0--------------------4---3--2--0-----|

|------------------------------------------|
|--------5----5/7---------5----5/7---------|
|--------4----4/6---------4----4/6---------|
|------------------------------------------|
|--4-4---------------0-0-------------------|
|------------------------------------------|

|------------------------------------------|
|--------5-----5/7-------------------------|
|--------4-----4/6-------------------------|
|--------------------------6---5--4--2-----|  
|--------------------------6---5--4--2-----|
|---0-0--------------------4---3--2--0-----|


|------------------------------------------|
|------------------------------------------|
|--------4-------4------4----4/6-----------|
|------------------------------------------|
|---4-4-----4-4----4-4----4----------------|
|------------------------------------------|

|------------------------------------------|
|------------------------------------------|
|------------------------------------------|
|--11\-----------------2-------------------|
|--11\-----------2--4-----4----------------|
|--9-\--0--2--4----------------------------|

\ slide down
/ slide up
b Bend





Comments


Popular Crush 40 tabs & chords
Escape From The City Chords
What I'm Made Of Chords
All Hail Shadow Intro Tabs
His World Intro Tabs
Knight Of The Wind Tabs
Live And Learn 4 Tabs
Metal Harbor 1 Tabs
Open Your Heart Tabs
Open Your Heart 2 Tabs
What Im Made Tabs


Song lyrics



↑ Back to top | Tablatures and chords are parodies/interpretations of the original songs. You may use it for private study, scholarship, research or language learning purposes only
© 2014 AZChords.com Contact us | Privacy policy | DMCA | Add/correct tabs | Request tabs | Top 50 tabs