>
 >
Live And Learn

Live And Learn Guitar Tabs

Crush 40 - Live And Learn chords, tabs, tablatures, lyrics

Guitar lessons | Add/correct | Request | Top 50 tabs Artists:  A B C D E F G H I J K L M N O P Q R S T U V W X Y Z 0-9

Live And Learn Guitar Tabs – Crush 40

CD, Sheet music, Poster

Do you like Live And Learn? Share with your friends now
Bass TabsTabsTabs v2Tabs v3Tabs v4Tabs v5
Intro
|------------------------------------------|
|--------5----5/7---------5----5/7---------|
|--------4----4/6---------4----4/6---------|
|------------------------------------------|
|--4-4---------------0-0-------------------|
|------------------------------------------|

|------------------------------------------|
|--------5-----5/7-------------------------|
|--------4-----4/6-------------------------|
|--------------------------6---5--4--2-----|  
|--------------------------6---5--4--2-----|
|---0-0--------------------4---3--2--0-----|

|------------------------------------------|
|--------5----5/7---------5----5/7---------|
|--------4----4/6---------4----4/6---------|
|------------------------------------------|
|--4-4---------------0-0-------------------|
|------------------------------------------|

|------------------------------------------|
|--------5-----5/7-------------------------|
|--------4-----4/6-------------------------|
|--------------------------6---5--4--2-----|  
|--------------------------6---5--4--2-----|
|---0-0--------------------4---3--2--0-----|


|------------------------------------------|
|------------------------------------------|
|--------4-------4------4----4/6-----------|
|------------------------------------------|
|---4-4-----4-4----4-4----4----------------|
|------------------------------------------|

Verse
|--------------------------------------|
|--------------------------------------|
|--6-------2---------------------------|
|--6-(x16)-2-(x16)-2--------4/6/4/6----|
|--4-------0-------2-(x16)--4/6/4/6----|
|------------------0--------2/4-2/4----|

|-------------------------------------------|
|-------------------------------------------|
|-------------------------------------------|
|--6--5--4--2-------------------------------|
|--6--5--4--2-------------------------------|
|--4--3--2--0-------------------------------|

|--------------------------------------------|
|--------------------------------------------|
|--6-------2---------------------------------|
|--6-(x16)-2-(x16)-2--------4/6/4/6--6--4/6--|
|--4-------0-------2-(x16)--4/6/4/6--6--4/6--|
|------------------0--------2/4/2/4--4--2/4--|


Prechorus
|-----------------------------------------------|
|-----------------------------------------------|
|-2------4------6-------------------------------|
|-2-(x8)-4-(x8)-6-(x8)-2--4--6--7--9------------|
|-0------2------4------2--4--6--7--9------------|
|----------------------0--2--4--5--7------------|

|-----------------------------------------------|
|-----------------------------------------------|
|-2------4------6------5--6--8--9---------------|
|-2-(x8)-4-(x8)-6-(x8)-5--6--8--9---------------|
|-0------2------4------3--4--6--7---------------|
|-----------------------------------------------|

|-----------------------------------------------|
|-----------------------------------------------|
|-2------4------6-------------------------------|
|-2-(x8)-4-(x8)-6-(x8)-2--4--6--7--9------------|
|-0------2------4------2--4--6--7--9------------|
|----------------------0--2--4--5--7------------|

|---------------------------------19--(push then pull whammy bar)
|-----------------------------------------------|
|-2-------5------5--5--7--7---------------------|
|-2-(x16)-5-(x8)-5--5--7--7---------------------|
|-0-------3------3--3--5--5---------------------|
|-----------------------------------------------|



Chorus
|---------------------------------------------|
|------5-----5/7------------------------------|
|------4-----4/6------------------------------|
|---------------------------------------------|
|-4-4-------------------4--0------------------|
|---------------------------------------------|

|--------------------------------------------|
|--------------------------------------------|
|-----------4--4--------------4-3------------|
|------4-6-------7-6------------------4------|
|--------------------------4------------2/4--|
|-----4------------------2-------------------|


|---------------------------------------------|
|------5-----5/7------------------------------|
|------4-----4/6------------------------------|
|---------------------------------------------|
|-4-4-------------------4--0------------------|
|---------------------------------------------|

|---------------------------------------------|
|---------------------------------------------|
|----------4--4-6-4------5--5----6----8-------|
|-----4-6----------------5--5----6----8-------| 
|------------------------3--3----4----6-------|
|----4----------------------------------------|

|---------------------------------------------|
|------5-----5/7------------------------------|
|------4-----4/6------------------------------|
|---------------------------------------------|
|-4-4-------------------4--0------------------|
|---------------------------------------------|

|--------------------------------------------|
|--------------------------------------------|
|-----------4--4--------------4-3------------|
|------4-6-------7-6------------------4------|
|--------------------------4------------2/4--|
|-----4------------------2-------------------|


|---------------------------------------------|
|------5-----5/7------------------------------|
|------4-----4/6------------------------------|
|---------------------------------------------|
|-4-4-------------------4--0------------------|
|---------------------------------------------|

|----------------------------------------------------------------------|
|----------------------------------------------------------------------|
|----------4--4-6-4------5--5----6----8--9--6--4/6--4--2----2--4--4----|
|-----4-6----------------5--5----6----8--9--6--4/6--4--2----2--4--4-(hold down whammy bar)
|------------------------3--3----4----6--7--4--2/4--2--0----0--2--2----|
|----4-----------------------------------------------------------------|


|------------------------------------------------|
|------------------------------------------------|
|--------4-6-------4-9----4-6----4-9-------------|
|------------------------------------------------|
|---4-4---------4-4------------------------------|
|------------------------------------------------|

Verse
|----------------------------------|
|----------------------------------|
|--6-------2-----------------------|
|--6-(x16)-2-(x16)-2--------6------|
|--4-------0-------2-(x16)--6-(x16)|
|------------------0--------4------|

Prechorus
|-----------------------------------------------|
|-----------------------------------------------|
|-2------4------6-------------------------------|
|-2-(x8)-4-(x8)-6-(x8)-2--4--6--7--9------------|
|-0------2------4------2--4--6--7--9------------|
|----------------------0--2--4--5--7------------|

|-----------------------------------------------|
|-----------------------------------------------|
|-2------4------6------5--6--8--9---------------|
|-2-(x8)-4-(x8)-6-(x8)-5--6--8--9---------------|
|-0------2------4------3--4--6--7---------------|
|-----------------------------------------------|

|-----------------------------------------------|
|-----------------------------------------------|
|-2------4------6-------------------------------|
|-2-(x8)-4-(x8)-6-(x8)-2--4--6--7--9------------|
|-0------2------4------2--4--6--7--9------------|
|----------------------0--2--4--5--7------------|

|---------------------------------19--(push whammy bar in rhythm)
|-----------------------------------------------|
|-2-------5------5--5--7--7---------------------|
|-2-(x16)-5-(x8)-5--5--7--7---------------------|
|-0-------3------3--3--5--5---------------------|
|-----------------------------------------------|


Chorus
|---------------------------------------------|
|------5-----5/7------------------------------|
|------4-----4/6------------------------------|
|---------------------------------------------|
|-4-4-------------------4--0------------------|
|---------------------------------------------|

|--------------------------------------------|
|--------------------------------------------|
|-----------4--4--------------4-3------------|
|------4-6-------7-6------------------4------|
|--------------------------4------------2/4--|
|-----4------------------2-------------------|


|---------------------------------------------|
|------5-----5/7------------------------------|
|------4-----4/6------------------------------|
|---------------------------------------------|
|-4-4--------------------4--0-----------------|
|---------------------------------------------|

|---------------------------------------------|
|---------------------------------------------|
|----------4--4-6-4------5--5----6----8-------|
|-----4-6----------------5--5----6----8-------| 
|------------------------3--3----4----6-------|
|----4----------------------------------------|

|---------------------------------------------|
|------5-----5/7------------------------------|
|------4-----4/6------------------------------|
|---------------------------------------------|
|-4-4-------------------4--0------------------|
|---------------------------------------------|

|--------------------------------------------|
|--------------------------------------------|
|-----------4--4--------------4-3------------|
|------4-6-------7-6------------------4------|
|--------------------------4------------2/4--|
|-----4------------------2-------------------|


|---------------------------------------------|
|------5-----5/7------------------------------|
|------4-----4/6------------------------------|
|---------------------------------------------|
|-4-4-------------------4--0------------------|
|---------------------------------------------|

|----------------------------------------------------------------------|
|----------------------------------------------------------------------|
|----------4--4-6-4------5--5----6----8--9--6--4/6--4--2----2--4--4----|
|-----4-6----------------5--5----6----8--9--6--4/6--4--2----2--4--4-(Hold down whammy bar) 
|------------------------3--3----4----6--7--4--2/4--2--0----0--2--2----|
|----4-----------------------------------------------------------------|

Solo!

e|---------------------------------------------16--12--9---------------------------------|
B|--------------------------------------0--2---------------14--12--14--12--14--13--11-9--|
G|--------------------------0--1-----1---------------------(played incredibly fast here)-|
D|---------2----2--4--2--4--------4------------------------------------------------------|
A|-4-2-4-----4---------------------------------------------------------------------------|
E|---------------------------------------------------------------------------------------|

e|-------------------------------------------------------12-------------|
B|---------------------------------------14--12--------------15--14-----|
G|-----------------------------------------------14---------------------|
D|-16--14---------------14--12-----------------------14-----------------|
A|---------16--14--12-----------16--12----------------------------------|
E|----------------------------------------------------------------------|

e|-----12--14--12--16--14--12--19----------17--16--15--14--12--9--|
B|-12--12--------------------------13--16-------------------------|
G|-13-------------------------------------------------------------|
D|----------------------------------------------------------------|
A|----------------------------------------------------------------|
E|----------------------------------------------------------------|


e|------------------------------------------12--11--9--17--|
B|----------------------------------10b-10-----------------|
G|--------------------------13--12-------------------------|
D|----------------------14---------------------------------|
A|------14--16--14--16-------------------------------------|
E|--16-----------------------------------------------------|

e|-----------------------------------------------12-|
B|--------------------------------------------------|
G|-----------------------------------16--14--12-----|
D|----------14--14--16--16--13--13------------------|
A|--14--14------------------------------------------|
E|-(Ive simplified this bit)-----------------------|



e|--11--12--11--14--16--15---12--11--14--16--15--21--20-|
B|------------------------------------------------------|
G|------------------------------------------------------|
D|------------------------------------------------------|
A|------------------------------------------------------|
E|------------------------------------------------------|

|-----------------------------------------------|
|-----------------------------------------------|
|-2------4------6------7------------------------|
|-2-(x8)-4-(x8)-6-(x8)-7-(x8)-------------------|
|-0------2------4------5------------------------|
|-----------------------------------------------|

|-----------------------------------------------|
|-----------------------------------------------|
|-2------4------6------7------------------------|
|-2-(x8)-4-(x8)-6-(x8)-7-(x8)-------------------|
|-0------2------4------5------------------------|
|-----------------------------------------------|


|-----------------------------------------------|
|--------------------------(guitar fill-here-but|
|-2-------5------5--5--7--7-I dont -know it)----|
|-2-(x16)-5-(x8)-5--5--7--7---------------------|
|-0-------3------3--3--5--5---------------------|
|-----------------------------------------------|


Chorus
|---------------------------------------------|
|------5-----5/7------------------------------|
|------4-----4/6------------------------------|
|---------------------------------------------|
|-4-4-------------------4--0------------------|
|---------------------------------------------|

|--------------------------------------------|
|--------------------------------------------|
|-----------4--4--------------4-3------------|
|------4-6-------7-6------------------4------|
|--------------------------4------------2/4--|
|-----4------------------2-------------------|


|---------------------------------------------|
|------5-----5/7------------------------------|
|------4-----4/6------------------------------|
|---------------------------------------------|
|-4-4-------------------4--0------------------|
|---------------------------------------------|

|---------------------------------------------|
|---------------------------------------------|
|----------4--4-6-4------5--5----6----8-------|
|-----4-6----------------5--5----6----8-------| 
|------------------------3--3----4----6-------|
|----4----------------------------------------|

|---------------------------------------------|
|------5-----5/7------------------------------|
|------4-----4/6------------------------------|
|---------------------------------------------|
|-4-4-------------------4--0------------------|
|---------------------------------------------|

|--------------------------------------------|
|--------------------------------------------|
|-----------4--4--------------4-3------------|
|------4-6-------7-6------------------4------|
|--------------------------4------------2/4--|
|-----4------------------2-------------------|


|---------------------------------------------|
|------5-----5/7------------------------------|
|------4-----4/6------------------------------|
|---------------------------------------------|
|-4-4-------------------4--0------------------|
|---------------------------------------------|

|---------------------------------------------|
|---------------------------------------------|
|----------4--4-6-4------5--5----6----8-------|
|-----4-6----------------5--5----6----8-------| 
|------------------------3--3----4----6-------|
|----4----------------------------------------|

for last chorus play this:

|---------------------------------------------|
|------5-----5/7------------------------------|
|------4-----4/6------------------------------|
|---------------------------------------------|
|-4-4-------------------4--0------------------|
|---------------------------------------------|

|---------------------------------------------|
|--------------------0--2---------------------|
|---------------------------------------------|
|---------------------------------------------|
|-----------0--2--4---------------------------|
|--0--2--4------------------------------------|


|---------------------------------------------|
|------5-----5/7------------------------------|
|------4-----4/6------------------------------|
|---------------------------------------------|
|-4-4-------------------4--0------------------|
|---------------------------------------------|

|---------------------------------------------|
|--------------------0--2---------------------|
|---------------------------------------------|
|---------------------------------------------|
|-----------0--2--4---------------------------|
|--0--2--4------------------------------------|

|---------------------------------------------|
|------5-----5/7------------------------------|
|------4-----4/6------------------------------|
|---------------------------------------------|
|-4-4-------------------4--0------------------|
|---------------------------------------------|

|---------------------------------------------|
|--------------------0--2---------------------|
|---------------------------------------------|
|---------------------------------------------|
|-----------0--2--4---------------------------|
|--0--2--4------------------------------------|


|---------------------------------------------|
|------5-----5/7------------------------------|
|------4-----4/6------------------------------|
|---------------------------------------------|
|-4-4-------------------4--0------------------|
|---------------------------------------------|

|---------------------------------------------|
|--------------------0--2---------------------|
|---------------------------------------------|
|---------------------------------------------|
|-----------0--2--4---------------------------|
|--0--2--4------------------------------------|


|--------------------------------|
|--------------------------------|
|--9--6--4/6--4--2----2--4--4----|
|--9--6--4/6--4--2----2--4--4-(Hold down whammy bar) 
|--7--4--2/4--2--0----0--2--2----|
|--------------------------------|

        
|------------------------------------------|
|--------5----5/7---------5----5/7---------|
|--------4----4/6---------4----4/6---------|
|------------------------------------------|
|--4-4---------------0-0-------------------|
|------------------------------------------|

|------------------------------------------|
|--------5-----5/7-------------------------|
|--------4-----4/6-------------------------|
|--------------------------6---5--4--2-----|  
|--------------------------6---5--4--2-----|
|---0-0--------------------4---3--2--0-----|

|------------------------------------------|
|--------5----5/7---------5----5/7---------|
|--------4----4/6---------4----4/6---------|
|------------------------------------------|
|--4-4---------------0-0-------------------|
|------------------------------------------|

|------------------------------------------|
|--------5-----5/7-------------------------|
|--------4-----4/6-------------------------|
|--------------------------6---5--4--2-----|  
|--------------------------6---5--4--2-----|
|---0-0--------------------4---3--2--0-----|


|------------------------------------------|
|------------------------------------------|
|--------4-------4------4----4/6-----------|
|------------------------------------------|
|---4-4-----4-4----4-4----4----------------|
|------------------------------------------|

|------------------------------------------|
|------------------------------------------|
|------------------------------------------|
|--11\-----------------2-------------------|
|--11\-----------2--4-----4----------------|
|--9-\--0--2--4----------------------------|

\ slide down
/ slide up
b Bend





Comments


Popular Crush 40 tabs & chords
Sonic Heroes 1 Chords
All Hail Shadow Intro 1 Tabs
Fight The Knight Intro Tabs
Highway In The Sky Tabs
I Am (All Of Me) 1 Tabs
It Doesnt Matter Intro Tabs
Metal Harbor Tabs
Metal Harbor 2 Tabs
Watch Me Fly Tabs
Wont Stop Just Go For Green Forest Tabs


Song lyrics



↑ Back to top | Tablatures and chords are parodies/interpretations of the original songs. You may use it for private study, scholarship, research or language learning purposes only
© 2014 AZChords.com Contact us | Privacy policy | DMCA | Add/correct tabs | Request tabs | Top 50 tabs