» » »

Live And Learn Tabs

Artists:  A B C D E F G H I J K L M N O P Q R S T U V W X Y Z # 

Live And Learn Tabs

(ver. 1)
Crush 40 Tabs
 Rating:
3.6/5 (7 votes)
    Live And Learn lessons Tabs too difficult? Try these video lessons and learn fast
                This is Juns guitar solo from live and learn.  It is hard so good luck learning 
it.  I am sure it is 100% correct.  Please comment and rate.

e|-----------------------------------------16--12--9------------------------|
B|-----------------------------------0--2------------12-14-17-14-12---------|
G|------------------------0--1----1---------------------------------13-11-9-|
D|--------2---2--4--2--4-------4---------------------(very fast here)-------|
A|-4-2-4----4---------------------------------------------------------------|
E|--------------------------------------------------------------------------|


e|-------------------------------------------------------12----------|
B|---------------------------------------12--10--------------15--10--|
G|-----------------------------------------------11--9---------------|
D|-16--14---------------14--12---------------------------------------|
A|---------16--14--12-----------16--12-------------------------------|
E|-------------------------------------------------------------------|


e|-----12----14----12--16--14--12--19---------------17----------|
B|--12-12-12-12-12-12--16--12--12--19-------13--16--17--16------|
G|-------------------------------------/13--13--13------17--17--|
D|--------------------------------------------------------------|
A|--------------------------------------------------------------|
E|--------------------------------------------------------------|


e|-------------------------------------------12--10--9--17--|
B|-----------------------------------10b-10-----------------|
G|----------------------------------------------------------|
D|---------------------------17--16-------------------------|
A|--14--16--19--16---14--16---------------------------------|
E|----------------------------------------------------------|


e|-------------------------------------------------------|
B|-------------------------------------------------------|
G|---------------------------------------------------16--|
D|-----------13----13-14-13-14-16-14-16--18--16--14------|
A|--14-12-14----14---------------------------------------|
E|-------------------------------------------------------|


e|------12--11--14--17--16------12--11--11--17--16--21--20--|
B|--13--14--13--17--19--17--13--14--13--13--19--17--22--21--|
G|--14----------------------14------------------------------|
D|----------------------------------------------------------|
A|----------------------------------------------------------|
E|----------------------------------------------------------|

/ Slide Up
b Bend
            
Submit corrections

↑ Back to top | Crush 40 Tabs for Live And Learn. Lyrics for acoustic guitar and electric guitar. Tablatures and chords are parodies/interpretations of the original songs. You may use it for private study, scholarship, research or language learning purposes only