» » »

Collective Soul, December Tabs (ver.2)

Artists:  A B C D E F G H I J K L M N O P Q R S T U V W X Y Z # 

December Tabs (ver.2)

Collective Soul Tabs
Rating:
0/5 (0 votes)
December lessons Tabs too difficult? Try these video lessons and learn fast
                (Complete)
*********************************

Guitar 1 - Rhythm
Guitar 2 - Lead


(Guitar 1) Intro/prechorus (Repeat 6 times)
e|-----------3----------------3----------------3-------------------------|
B|-----3---3---3--------3---3---3--------3---3---3-------3---------------|
G|---0---0-------0----0---0-------0----0---0-------0---0---0---0----0----|
D|-----------------------------------------------------------------------|
A|-----------------------------------3---------------1-------1---2-------|
E|-3----------------1----------------------------------------------------|

(Guitar 2) Intro Lead
e|-----------------------------------------------------------------------|
B|-----------------------------------------------------------------------|
G|-------0----------------0--------------0---------------------0---0-----|
D|----0----------------0--------------------0----------------------------|
A|-----------------------------------3---------------1-------1---2-------|
E|-3----------------1----------------------------------------------------|

Guitar 1 Chorus (Rythem)
(Strum)
   G5 G5/F  Csus2  G/Bb 
e|-3---3-----3-----3-----|
B|-3---3-----3-----3-----|
G|-0---0-----0-----0-----|
D|-0---0-----0-----0-----|
A|-2---x-----3-----1-----|
E|-3---1-----------------|

(Guitar 2) Chorus Lead (Play when needed - Listen to the song)
e|-3-3--3-5-3------------------------------------------------------------|
B|-3-3--3-3-3-------6-6--6-8-6-------5-5--5-5-5-------3-3--3-3-3---------|
G|------------------7-7--7-7-7-------5-5--5-7-5-------3-3--3-5-3-5-------|
D|-----------------------------------------------------------------------|
A|-----------------------------------------------------------------------|
E|-----------------------------------------------------------------------|

(Guitar 2) Rift @ 2:53 (Repeat twice PALM MUTE!)
e|----------------------------------|------------------------------------|
B|----------------------------------|------------------------------------|
G|0---0---0---0---0---0---0---0-----|0---0---0---0---0---0---0---0-------|
D|5---5---5---5---5---5---5---5-----|3---3---3---3---3---3---3---3-------|
A|----------------------------------|------------------------------------|
E|----------------------------------|------------------------------------|
  PM..............................................................
                                     (Repeat when course is played after)
e|----------------------------------|------------------------------------|
B|----------------------------------|------------------------------------|
G|0---0---0---0---0---0---0---0-----|3---3---3---3---3---3---3---3--0----|
D|2---2---2---2---2---2---2---2-----|------------------------------------|
A|3---3---3---3---3---3---3---3-----|------------------------------------|
E|----------------------------------|------------------------------------|
                                      (this gets louder as it goes)

(Guitar 1) Outro (End in slow strum of G')
e|---3----
B|---3----
G|---0----
D|---0----
A|---2----
E|---3----
            

comments powered by Disqus
↑ Back to top | Collective Soul Tabs for December. Lyrics for acoustic guitar and electric guitar. Tablatures and chords are parodies/interpretations of the original songs. You may use it for private study, scholarship, research or language learning purposes only