>
 >
December 1

December 1 Bass Tabs

Collective Soul - December 1 chords, tabs, tablatures, lyrics

Guitar lessons | Add/correct | Request | Top 50 tabs Artists:  A B C D E F G H I J K L M N O P Q R S T U V W X Y Z 0-9

December 1 Bass Tabs – Collective Soul

CD, Sheet music, Poster

Do you like December 1? Share with your friends now
Bass TabsBass Tabs v2ChordsChords v2Chords v3TabsTabs v2Tabs v3Tabs v4Tabs v5Tabs v6Ukulele

DECEMBER (Bassline)





 

 

Gtr I (E A D G) - 'Staff'


  Q=122
 4/4
  Gtr I
  W          W          W          W
|----------|----------|----------|------|
|----------|----------|----------|------|
|----------|----------|----------|------|
|----------|----------|----------|------|


  W          W          W          W
|----------|----------|----------|------|
|----------|----------|----------|------|
|----------|----------|----------|------|
|----------|----------|----------|------|


  W          W          W          W
|----------|----------|----------|------|
|----------|----------|----------|------|
|----------|----------|----------|------|
|----------|----------|----------|------|


  W          W          W          W
|----------|----------|----------|------|
|----------|----------|----------|------|
|----------|----------|----------|------|
|----------|----------|----------|------|


  W          W          W          W
|----------|----------|----------|------|
|----------|----------|----------|------|
|----------|----------|----------|------|
|----------|----------|----------|------|


  W          W          W          W
|----------|----------|----------|------|
|----------|----------|----------|------|
|----------|----------|----------|------|
|----------|----------|----------|------|


  H    H      H    H      H    H      H    E E E E
|-----------|-----------|-----------|--------------|
|-----------|-----------|-----------|--------------|
|-----------|-----------|-3----3----|-1----1-2-2-1-|
|-3----3----|-1----1----|-----------|--------------|


  H    H      H    H      H    H      H    E E E E
|-----------|-----------|-----------|--------------|
|-----------|-----------|-----------|--------------|
|-----------|-----------|-3----3----|-1----1-2-2-1-|
|-3----3----|-1----1----|-----------|--------------|


  E E E E E E E E   E E E E E E E E   E E E E E E E E   E E E E E E E E
|-----------------|-----------------|-----------------|-----------------|
|-----------------|-----------------|-----------------|-----------------|
|-----------------|-----------------|-3-3-3-3-3-3-3-3-|-1-1-1-1-1-2-2-1-|
|-3-3-3-3-3-3-3-3-|-1-1-1-1-1-1-1-1-|-----------------|-----------------|


  E E E E E E E E   E E E E E E E E   E E E E E E E E   E E E E E E E E
|-----------------|-----------------|-----------------|-----------------|
|-----------------|-----------------|-----------------|-----------------|
|-----------------|-----------------|-3-3-3-3-3-3-3-3-|-1-1-1-1-1-2-2-1-|
|-3-3-3-3-3-3-3-3-|-1-1-1-1-1-1-1-1-|-----------------|-----------------|


  H    +H       W          W          W
|-------------|----------|----------|------|
|-------------|----------|----------|------|
|-2----(2)----|----------|----------|------|
|-------------|----------|----------|------|


  W          W          W          W
|----------|----------|----------|------|
|----------|----------|----------|------|
|----------|----------|----------|------|
|----------|----------|----------|------|


  W          W          W          W
|----------|----------|----------|------|
|----------|----------|----------|------|
|----------|----------|----------|------|
|----------|----------|----------|------|


  W          W          W          W
|----------|----------|----------|------|
|----------|----------|----------|------|
|----------|----------|----------|------|
|----------|----------|----------|------|


  W          W          W          W
|----------|----------|----------|------|
|----------|----------|----------|------|
|----------|----------|----------|------|
|----------|----------|----------|------|


  W          W          W          W
|----------|----------|----------|------|
|----------|----------|----------|------|
|----------|----------|----------|------|
|----------|----------|----------|------|


  H    H      H    H      H    H      H    E E E E
|-----------|-----------|-----------|--------------|
|-----------|-----------|-----------|--------------|
|-----------|-----------|-3----3----|-1----1-2-2-1-|
|-3----3----|-1----1----|-----------|--------------|


  H    H      H    H      H    H      H    E E E E
|-----------|-----------|-----------|--------------|
|-----------|-----------|-----------|--------------|
|-----------|-----------|-3----3----|-1----1-2-2-1-|
|-3----3----|-1----1----|-----------|--------------|


  H    H      H    H      H    H      H    E E E E
|-----------|-----------|-----------|--------------|
|-----------|-----------|-----------|--------------|
|-----------|-----------|-3----3----|-1----1-2-2-1-|
|-3----3----|-1----1----|-----------|--------------|


  H    H      H    H      H    H      H    E E E E
|-----------|-----------|-----------|--------------|
|-----------|-----------|-----------|--------------|
|-----------|-----------|-3----3----|-1----1-2-2-1-|
|-3----3----|-1----1----|-----------|--------------|


  E E E E E E E E   E E E E E E E E   E E E E E E E E   E E E E E E E E
|-----------------|-----------------|-----------------|-----------------|
|-----------------|-----------------|-----------------|-----------------|
|-----------------|-----------------|-3-3-3-3-3-3-3-3-|-1-1-1-1-1-2-2-1-|
|-3-3-3-3-3-3-3-3-|-1-1-1-1-1-1-1-1-|-----------------|-----------------|


  E E E E E E E E   E E E E E E E E   E E E E E E E E   E E E E E E E E
|-----------------|-----------------|-----------------|-----------------|
|-----------------|-----------------|-----------------|-----------------|
|-----------------|-----------------|-3-3-3-3-3-3-3-3-|-1-1-1-1-1-2-2-1-|
|-3-3-3-3-3-3-3-3-|-1-1-1-1-1-1-1-1-|-----------------|-----------------|


  W          W          W          W
|----------|----------|----------|------|
|----------|----------|----------|------|
|----------|----------|----------|------|
|----------|----------|----------|------|


  W          W          W          W
|----------|----------|----------|------|
|----------|----------|----------|------|
|----------|----------|----------|------|
|----------|----------|----------|------|


  H    +Q   Q    H    +Q   Q    H    +H       H    +Q   Q
|--------------|--------------|-------------|--------------|
|-----------5--|-3----(3)--5--|-------------|--------------|
|--------------|--------------|-7----(7)----|--------------|
|-3----(3)-----|--------------|-------------|-6----(6)--7--|


  H    +Q   Q    H    +Q   Q    H    +H       Q  Q  E E E E
|--------------|--------------|-------------|---------------|
|-----------5--|-3----(3)--5--|-------------|---------------|
|--------------|--------------|-7----(7)----|-------8-7-5-3-|
|-3----(3)-----|--------------|-------------|-6--6----------|


  E E E E E E E E   E E E E E E E E   E E E E E E E E   E E E E E E E E
|-----------------|-----------------|-----------------|-----------------|
|-----------------|-----------------|-----------------|-----------------|
|-----------------|-----------------|-3-3-3-3-3-3-3-3-|-1-1-1-1-1-2-2-1-|
|-3-3-3-3-3-3-3-3-|-1-1-1-1-1-1-1-1-|-----------------|-----------------|


  E E E E E E E E   E E E E E E E E   E E E E E E E E   E E E E E E E E
|-----------------|-----------------|-----------------|-----------------|
|-----------------|-----------------|-----------------|-----------------|
|-----------------|-----------------|-3-3-3-3-3-3-3-3-|-1-1-1-1-1-2-2-1-|
|-3-3-3-3-3-3-3-3-|-1-1-1-1-1-1-1-1-|-----------------|-----------------|


  E E E E E E E E   E E E E E E E E   E E E E E E E E   E E E E E E E E
|-----------------|-----------------|-----------------|-----------------|
|-----------------|-----------------|-----------------|-----------------|
|-----------------|-----------------|-3-3-3-3-3-3-3-3-|-1-1-1-1-1-2-2-1-|
|-3-3-3-3-3-3-3-3-|-1-1-1-1-1-1-1-1-|-----------------|-----------------|


  E E E E E E E E   E E E E E E E E   E E E E E E E E   E E E E E E E E
|-----------------|-----------------|-----------------|-----------------|
|-----------------|-----------------|-----------------|-----------------|
|-----------------|-----------------|-3-3-3-3-3-3-3-3-|-1-1-1-1-1-2-2-1-|
|-3-3-3-3-3-3-3-3-|-1-1-1-1-1-1-1-1-|-----------------|-----------------|


  E E E E E E E E   E E E E E E E E   E E E E E E E E   E E E E E E E E
|-----------------|-----------------|-----------------|-----------------|
|-----------------|-----------------|-----------------|-----------------|
|-----------------|-----------------|-3-3-3-3-3-3-3-3-|-1-1-1-1-1-2-2-1-|
|-3-3-3-3-3-3-3-3-|-1-1-1-1-1-1-1-1-|-----------------|-----------------|


  E E E E E E E E   E E E E E E E E   E E E E E E E E   E E E E E E E E
|-----------------|-----------------|-----------------|-----------------|
|-----------------|-----------------|-----------------|-----------------|
|-----------------|-----------------|-3-3-3-3-3-3-3-3-|-1-1-1-1-1-2-2-1-|
|-3-3-3-3-3-3-3-3-|-1-1-1-1-1-1-1-1-|-----------------|-----------------|


  E E E E E E E E   E E E E E E E E   E E E E E E E E   E E E E E E E E
|-----------------|-----------------|-----------------|-----------------|
|-----------------|-----------------|-----------------|-----------------|
|-----------------|-----------------|-3-3-3-3-3-3-3-3-|-1-1-1-1-1-2-2-1-|
|-3-3-3-3-3-3-3-3-|-1-1-1-1-1-1-1-1-|-----------------|-----------------|


  E E E E E E E E   E E E E E E E E   E E E E E E E E   E E E E E E E E
|-----------------|-----------------|-----------------|-----------------*|
|-----------------|-----------------|-----------------|-----------------*|
|-----------------|-----------------|-3-3-3-3-3-3-3-3-|-1-1-1-1-1-2-2-1-*|
|-3-3-3-3-3-3-3-3-|-1-1-1-1-1-1-1-1-|-----------------|-----------------*|




--------------------------------------------------------------------------------


Duration Legend
---------------
W - whole; H - half; Q - quarter; E - 8th; S - 16th; T - 32nd; X - 64th; a - acciaccatura
+ - note tied to previous; . - note dotted; .. - note double dotted
Uncapitalized letters represent notes that are staccato (1/2 duration)
Irregular groupings are notated above the duration line
Duration letters will always appear directly above the note/fret number it represents the
duration for.  Duration letters with no fret number below them represent rests.  Multi-
bar rests are notated in the form Wxn, where n is the number of bars to rest for.  Low
melody durations appear below the staff

Tablature Legend
----------------
 h   - hammer-on
 p   - pull-off
 b   - bend
 pb  - pre-bend
 r   - bend release (if no number after the r, then release immediately)
 /\  - slide into or out of (from/to "nowhere")
 s   - legato slide
 S   - shift slide
 - natural harmonic
[n]  - artificial harmonic
n(n) - tapped harmonic
 ~   - vibrato
 tr  - trill
 T   - tap
 TP  - trem. picking
 PM  - palm muting
\n/  - tremolo bar dip; n = amount to dip
 \n  - tremolo bar down
 n/  - tremolo bar up
/n\  - tremolo bar inverted dip
 =   - hold bend; also acts as connecting device for hammers/pulls
 <> - volume swell (louder/softer)
 x   - on rhythm slash represents muted slash
 o   - on rhythm slash represents single note slash

Misc Legend
-----------
 |  - bar
||  - double bar
||o - repeat start
o|| - repeat end
*|  - double bar (ending)
 :  - bar (freetime)
 $  - Segno
 &  - Coda
Tempo markers -  = BPM(8/16=s8/s16), where s8 = swing 8ths, s16 = swing 16ths



--------------------------------------------------------------------------------





Comments


Popular Collective Soul tabs & chords
Gel 4 Bass Tabs
Persuasion Of You Bass Tabs
In Between  Chords
Perfect Day  Chords
Hollywood 1 Tabs
Hollywood 2 Tabs
Shine 4 Tabs
Understanding Tabs
Where The River Flows 1 Tabs
Crown Ukulele


Song lyrics



↑ Back to top | Tablatures and chords are parodies/interpretations of the original songs. You may use it for private study, scholarship, research or language learning purposes only
© 2014 AZChords.com Contact us | Privacy policy | DMCA | Add/correct tabs | Request tabs | Top 50 tabs