» » »

Collective Soul, December Bass tabs (ver.1)

Artists:  A B C D E F G H I J K L M N O P Q R S T U V W X Y Z # 

December Bass tabs (ver.1)

Collective Soul Tabs
 Rating:
4.5/5 (8 votes)
December lessons Tabs too difficult? Try these video lessons and learn fast
1
                #------------------------------------------------------------------------------##
Collective Soul - December


Chorus

||-------------|-----------|-----------|-----------------||
||o------------|-----------|-----------|----------------o||
||o------------|-----------|--3----3---|---1----1/2-----o||
||---3----3----|-1----1----|-----------|-----------------||
                                                                        
                                                                        
||-----------------------|------------------------|------------------------|
||o----------------------|------------------------|------------------------|
||o----------------------|------------------------|-3--3--3--3--3--3--3--3-|
||---3--3--3--3--3--3--3-|-1--1--1--1--1--1--1--1-|------------------------|
                                                                        
                                                                        
|-------------------------||---------------|-------------|-------------|
|------------------------o||---------------|-------------|-------------|
|-1--1--1--1--1--3--3--1-o||---------------|-------------|-------------|
|-------------------------||----3----------|-------------|-------------|
                                                                        
                                                                        
||------------|-----------|------------|--------------||----------------
||o-----------|-----------|------------|-------------o||o---------------
||o-----------|-----------|--3----3----|---1----1/2--o||o---------------
||----3---3---|-1----1----|------------|--------------||---3--3--3--3---
                                                                        
                                                                        
--------------|-------------------------|------------------------|
--------------|-------------------------|------------------------|
--------------|-------------------------|-3--3--3--3--3--3--3--3-|
--3--3--3--3--|-1--1--1--1--1--1--1--1--|------------------------|
                                                                        
                                                                        
|----------------------||--------||-------------|----------|-----------|
|---------------------o||--------||o--------5---|-3----5---|-2---------|
|-1--1--1--1--1--1/2--o||--------||o------------|----------|-----------|
|----------------------||--------||---3---------|----------|-----------|
                                                                        
1.             2.                             Bridge                    
|-----------||-----------------------------||---------------------------|
|----------o||-----------3----2------------||o--------------------------|
|-1----2---o||-1----1--------------5----3--||o--------------------------|
|-----------||-----------------------------||----3--3--3--3--3--3--3--3-|
                                                                        
                                                                        
|-------------------------|-------------------------|-------------------
|-------------------------|-------------------------|-------------------
|-------------------------|-3--3--3--3--3--3--3--3--|-1--1--1--1--1--2--
|-1--1--1--1--1--1--1--1--|-------------------------|-------------------


---------||----------------------|-----------------|-------------------|
--------o||----------------------|-----------------|-------------------|
--2--2--o||----------------------|-----------------|-------------------|
---------||-----3----------------|-----------------|-------------------|
                                                                        
                                                                        
=======================================================================
h = hammeron                    Judy Letostak                         
t = tap (right hand)            The Music Shop BBS (619)423-4970 24hrs
~ = vibrato                     * = picked harmonic
bf = bend full                  tr = trill
rb = release bend               p.s. = pick scr*pe
dive = dive with bar            b = bend / step written over note
========================================================================
The Music Shop BBS (619)423-4970  24hrs
will take anything that can be put on a computer...Lyrics, pictures, sound
Also have a menu for bands to put up Biographies, reviews of shows, demos,
gig advertisements, and you can sell your demo/CD here as well...And it's
absolutely FREE!

            
Submit corrections

comments powered by Disqus
↑ Back to top | Collective Soul Bass for December. Lyrics for acoustic guitar and electric guitar. 1 Tablatures and chords are parodies/interpretations of the original songs. You may use it for private study, scholarship, research or language learning purposes only