>
 >
Under Heaven's Skies

Under Heaven's Skies Guitar Tabs

Collective Soul - Under Heaven's Skies chords, tabs, tablatures, lyrics

Guitar lessons | Add/correct | Request | Top 50 tabs Artists:  A B C D E F G H I J K L M N O P Q R S T U V W X Y Z 0-9

Under Heaven's Skies Guitar Tabs – Collective Soul

CD, Sheet music, Poster

Do you like Under Heaven's Skies? Share with your friends now
Tabs
This is my first tab (go easy on me.)  I think I did pretty good, but if
you have any corrections or additions, please drop me an email.

standard tuning all guitars
guitar 2 riffs/lead at bottom - guitar 2 bridge and guitar 3 not yet tabbed

     E               C#             A
E----------     E----------    E----------|
B----------     B----------    B----------|
G-------9--     G-----6----    G----------|
D-------9--     D-----6----    D-----7----|
A-----7----     A---4------    A-----7----|
E0---------     E----------    E---5------|


[verse 1]
             E
Whenever I taste
                C#
Honey from your lips
                 A
It's a moment of purpose
              E
Only you can give

Whatever I hear
               C#
Whatever I may see
             A
What ever my cause dear
              E
I know you'll believe


[chorus]
E                          C#        A
'Cause you're beautiful my love
                E
When I close my eyes
E                          C#        A
Yeah You're beautiful my love
                 E
Under Heaven's skies


[verse 2]
              E
If ever you think
               C#
Callous is the night
                      A
I'll comfort you with silence
                  E
Till the morning light

Wherever you turn
                 C#
Wherever you may roam
               A
Wherever you conquer
                    E
I'll always be your home


[chorus]


[bridge]
          C#                   A                E
Yeah you fly me through your skies and call my name
         C#               A             E
And you lay me down with words of honesty
              C#
Yeah you're beautiful
         A                 E
You're beautiful here with me

["interlude"] - see below for lead
E C# A E

[chorus]

["chorus 2"] - 3 times
                        C#
And you're beautiful my love
                        A
And you're beautiful my love
                        E
And you're beautiful my love


["final chorus"]
                        C#
And you're beautiful my love
                        A
And you're beautiful my love
                 E
Under heaven's skies


[during verses guitar 2 plays...]
[there is a 3rd guitar in the second half of verse 2 (following "wherever you turn")
but I would play that part on guitar 2 if you don't have a 3rd guitar - not yet tabbed]

during E
E---------------------------------------------|
B---------------------------------------------|
G---------------------------------------------|
D-7-7-7-9-9-9-11-11-11-11-11-11-12-11-9-11----|
A---------------------------------------------|
E---------------------------------------------|

during C#
E---------------------------------------------|
B---------------------------------------------|
G---------------------------------------------|
D---------------------------------------------|
A-------9-9-9-11-11-11-11-11-11-12-11-9-11----|
E-9-9-9---------------------------------------|

during A
E---------------------------------------------|
B---------------------------------------------|
G---------------------------------------------|
D---------------------------------------------|
A-------9-9-9-11-11-11-11-11-11-12-11-9-11----|
E-5-5-5---------------------------------------|

[guitar 2 during chorus and first 2 "chorus 2's"]

E----------------------------------------------|
B-12-12-12-10-10-10-10-10-9-9-9-10-10-10-10-10-|
G----------------------------------------------|
D----------------------------------------------|
A----------------------------------------------|
E----------------------------------------------|

[guitar 2 "interlude"]
E---------------------------------------------------------------------------------|
B---------------------------------------------------------------------------------|
G-9-9-9-9-9-9-9-9-9-9-9-9-9-9-9-9-13-13-13-13-13-13-13-13-13-13-13-13-13-13-13-13-|
D---------------------------------------------------------------------------------|
A---------------------------------------------------------------------------------|
E---------------------------------------------------------------------------------|

E-------------------------------------------------------------------|
B-14-14-14-14-14-14-14-14-14-14-14-14-14-14-14-14-17-17-17-17-17-16-|
G-------------------------------------------------------------------|
D-------------------------------------------------------------------|
A-------------------------------------------------------------------|
E-------------------------------------------------------------------|

E----19----------19----19---------------------------------------------|
B-17----17-16-17----17---17-------------------------------------------|
G---------------------------------------------------------------------|
D---------------------------------------------------------------------|
A---------------------------------------------------------------------|
E---------------------------------------------------------------------|

[guitar 2 last "chorus 2" and "final chorus"]

E-16-16-16-16-16-16-16-16-17-17-17-17-17-17-17-17-19-19-19-19-19-19-19-19-|
B-------------------------------------------------------------------------|
G-------------------------------------------------------------------------|
D-------------------------------------------------------------------------|
A-------------------------------------------------------------------------|
E-------------------------------------------------------------------------|

E-19-19-19-19-19-19-19-19-|
B-------------------------|
G-------------------------|
D-------------------------|
A-------------------------|
E-------------------------|

E-16-16-16-16-16-16-16-16-17-17-17-17-17-17-17-17\-12-|
B-----------------------------------------------------|
G-----------------------------------------------------|
D-----------------------------------------------------|
A-----------------------------------------------------|
E-----------------------------------------------------|





Comments


Popular Collective Soul tabs & chords
No More, No Less 1 Bass Tabs
Good Morning After All Chords
Hymn For My Father Chords
Giving  Tabs
Shine Tabs
Tremble For My Beloved Tabs
Wasting Time Tabs
Wasting Time 3 Tabs
When The Water Falls 1 Tabs
Where The River Flows 5 Tabs


Song lyrics



↑ Back to top | Tablatures and chords are parodies/interpretations of the original songs. You may use it for private study, scholarship, research or language learning purposes only
© 2014 AZChords.com Contact us | Privacy policy | DMCA | Add/correct tabs | Request tabs | Top 50 tabs