>
 >
Maybe

Maybe Guitar Tabs

Collective Soul - Maybe chords, tabs, tablatures, lyrics

Guitar lessons | Add/correct | Request | Top 50 tabs Artists:  A B C D E F G H I J K L M N O P Q R S T U V W X Y Z 0-9

Maybe Guitar Tabs – Collective Soul

CD, Sheet music, Poster

Do you like Maybe? Share with your friends now
Tabs



This beautiful acoustic song is in memory of Kib Browning, a songwritter as well as a 
friend of Ed's.  On the CD, the high E string doesn't ring very much, so if you want 
play exactly like the CD, omit all the notes that occur on the high E string.  I'm
going to omit Dean's part because his part is purely sugar;  If you listen carefully,
all his bits are a combination of Ross's and Ed's parts.  Also, with thos HFS pickups
of his, that ebow generates a TON of harmonics, so don't be surprised if you can't
duplicate the sound (unless, of course, you own a PRS).



TUNING = STANDARD
TIME = 4/4
TEMPO = 114 BEATS PER MINUTE

--------------------------------------------------
CHORDS:
--------------------------------------------------

      G  D/F# Em7  C9 As4  A   Am As2 G/B
E-----3---3----3---3-----------0---0-------
B-----3---3----3---3---3---2---1---0---3---
G-----0---2----0---0---2---2---2---2---0---
D-----0---0----2---2---2---2---2---2---0---
A-----2---0----2---3---0---0---0---0---2---
E-----3---2----0---------------------------

--------------------------------------------------
--------------------------------------------------



                                   ACOUSTIC

VERSE #1:

G, D/F#, Em7, C9


G           D/F#           Em7          C9                G   D/F#    Em7     C9
        The sky now divides to bring you back into the fold.  Welcome home.

G           D/F#              Em7     C9                 G    D/F#    Em7    C9
   Still my need to recognize any comfort you must show       only    grows

           As4                A  C9                           C9
Guess I'll learn to accomodate  While my heart just sits and waits

CHORUS:
G      C9 
    Maybe  God you've found

G      C9              Am                    As2   G/B       C9
    Maybe  is all that you can offer now,    offer    now

VERSE #2:

G  D/F#  Em7  C9
G  D/F#  Em7  C9

G             D/F#            Em7        C9                    G   D/F#   Em7  C9
     Where am I to take refuge  when the storms of pain release?   Shelter me.

G        D/F#                Em7         C9                    G   D/F#    Em7  C9
    This blessedness of life   sometimes brings me to my knees.    Call on me.

       As4                    A       C9            C9
I have not the words to write   a farewell to you tonight

REPEAT CHORUS:

BRIDGE:

    Em7         C9
But I know that hearts are weeping,

      Em7           C9             G      G        D/F#    D/F#
While your voice is now singing on high.  Angel on high.

SOLO:

G  D/F#  Em7  C9 (Four times; electric enters after second time)

           As4                    A       C9            c9
And I have not the words to write   a farewell to you tonight.

REPEAT CHORUS TWICE:  End the song on a G and let it ring.

















				ELECTRIC

VERSE #1:

    G       D/F#    Em9    C9          G                   D/F#
E---------|-------|------|-----------|-------------------|----------------------
B---------|-------|------|-----------|-------------------|----------------------
G---12~~~-|-11~~~-|-9~~~-|-7~~~-5~~~-|-0-----4^-(4)^-(4)-|-7-----4^-(4)^-(4)----
D---------|-------|------|-----------|-------------------|----------------------
A---------|-------|------|-----------|-------------------|----------------------
E---------|-------|------|-----------|-------------------|----------------------
   w/ebow


      Em9                 C9           As4    A      C9      C9     
E---|-------------------|------------|------|------|------|---------------||
B---|-------------------|------------|------|------|------|---------------||
G---|-0-----4^-(4)^-(4)-|-0-----2~~~/|-7~~~-|-6~~~-|-5~~~-|-(5)---0h2-0h2-||
D---|-------------------|------------|------|------|------|---------------||
A---|-------------------|------------|------|------|------|---------------||
E---|-------------------|------------|------|------|------|---------------||
                                                                  w/o ebow


CHORUS:

    G                                 C9                                G
E-------3-----3-3-----3-3-----3-3---|-----3-----3-3-----3-3-----3-3---|-----3---
B---------3-3-----3-3-----3-3-----3-|-------3-3-----3-3-----3-3-----3-|---------
G---0-------------------------------|-5-------------------------------|-0-------
D-----------------------------------|---------------------------------|---------
A-----------------------------------|---------------------------------|---------
E-----------------------------------|---------------------------------|---------
    p.m_________________________________________________________________________


                                C9                                Am
E-------3-3-----3-3-----3-3---|---3-3-----3-3-----3-3-3---3-3-3-|-----8---------
B---3-3-----3-3-----3-3-----3-|-------3-3-----3-3-------3-------|/5-------5-----
G-----------------------------|-5-------------------------------|---------------
D-----------------------------|---------------------------------|---------------
A-----------------------------|---------------------------------|---------------
E-----------------------------|---------------------------------|---------------
_______________________________________________|


          As2       G/B   C9                C9
E---8-8-|-----7-------7\|-3-------3-------|-3---3---3-3-3-3-3-3-3-3-3-||
B-------|-5-------5-----|-----5-------5---|-5-------------------------||
G-------|---------------|-----------------|---------------------------||
D-------|---------------|-----------------|---------------------------||
A-------|---------------|-----------------|---------------------------||
E-------|---------------|-----------------|---------------------------||


VERSE #2:

    G       D/F#    Em7     C9            G       D/F#    Em7    C9
E---------|-------|-------|-------------|-------|-------|------|----------------
B---------|-------|-------|-------------|-------|-------|------|----------------
G---12~~~-|-11~~~-|-12~~~-|-14~~~/16~~~-|-12~~~-|-11~~~-|-9~~~-|-7~~~-4^-(4)----
D---------|-------|-------|-------------|-------|-------|------|----------------
A---------|-------|-------|-------------|-------|-------|------|----------------
E---------|-------|-------|-------------|-------|-------|------|----------------
w/ ebow

          G               D/F#    Em7    C9          G           D/F#    Em7
E-------|---------------|-------|------|-----------|-----------|-------|--------
B-------|---------------|-------|------|-----------|-----------|-------|--------
G---~~~-|-0-(0)/(12)~~~-|-11~~~-|-9~~~-|-7~~~-5~~~-|-0~~~/(12)-|-11~~~-|-9------
D-------|---------------|-------|------|-----------|-----------|-------|--------
A-------|---------------|-------|------|-----------|-----------|-------|--------
E-------|---------------|-------|------|-----------|-----------|-------|--------

          C9          G                   D/F#                Em7
E-------|-----------|-------------------|-------------------|-------------------
B-------|-----------|-------------------|-------------------|-------------------
G---~~~-|-7~~~-5~~~-|-0-----4^-(4)^-(4)-|-7-----4^-(4)^-(4)-|-0-----4^-(4)^-----
D-------|-----------|-------------------|-------------------|-------------------
A-------|-----------|-------------------|-------------------|-------------------
E-------|-----------|-------------------|-------------------|-------------------

          C9                  G                   D/F#                Em7
E-------|-------------------|-------------------|-------------------|-----------
B-------|-------------------|-------------------|-------------------|-----------
G---(4)-|-7-----4^-(4)^-(4)-|-0-----4^-(4)^-(4)-|-7-----4^-(4)^-(4)-|-0-----4^--
D-------|-------------------|-------------------|-------------------|-----------
A-------|-------------------|-------------------|-------------------|-----------
E-------|-------------------|-------------------|-------------------|-----------

                 C9           As4    A      C9     C9
E--------------|------------|------|------|------|-----------------||
B--------------|------------|------|------|------|-----------------||
G-----(4)^-(4)-|-0-----2~~~/|-7~~~-|-6~~~-|-5~~~-|-(5)-----0h2-0h2-||
D--------------|------------|------|------|------|-----------------||
A--------------|------------|------|------|------|-----------------||
E--------------|------------|------|------|------|-----------------||


REPEAT CHORUS:

BRIDGE:

More ebow stuff.

    Em7                    C9                Em7                    C9
E------------------------|-----------------|----------------------|-------------
B------------------------|-----------------|----------------------|-------------
G---11^-(11)-7\----0-2-4-|-2-0-----2-4-7-0-|-11^-(11)-7\----0-2-4-|-2-0-----2---
D------------------------|-----------------|----------------------|-------------
A------------------------|-----------------|----------------------|-------------
E------------------------|-----------------|----------------------|-------------
 
            G       G         D/F#   D/F#
E---------|-------|---------|------|--------||
B---------|-------|---------|------|--------||
G---4-7-0-|-12~~~-|-(12)~~~\|-19~~-|-(19)~~\||
D---------|-------|---------|------|--------||
A---------|-------|---------|------|--------||
E---------|-------|---------|------|--------||


SOLO:

Then everything cuts out except for the acoustic.
	(G, D/F#, Em7, C9)
	(G, D/F#, Em7, C9)


Then in comes the electric.

    G
E---------------------------------------------------------------|-------
B-------15----------15--15----------15--15----------15----------|-------
G---12------12--12----------12--12----------12--12------12--12--|-------
D---------------------------------------------------------------|-------
A---------------------------------------------------------------|-------
E---------------------------------------------------------------|-------
pm_____________________________________________________|    pm__  

    D/F#                                                                        
E--------------------------------------------------------------------|--
B-------13--12--13--12--12------12--12--13--12--12------12--12-------|--
G---12----------------------12----------------------12----------12---|--
D--------------------------------------------------------------------|--
A--------------------------------------------------------------------|--
E--------------------------------------------------------------------|--
______|                     pm                      pm          pm                  

    Em7                                                                        
E------------------------------------------------------------------|----
B-------15-15----------15--15----------15--15----------15--15------|----
G---12---------12--12----------12--12----------12--12----------12--|----
D------------------------------------------------------------------|----
A------------------------------------------------------------------|----
E------------------------------------------------------------------|----
    pm         pm__________________________________________________       

    C9                                                                        
E-------------------------------------------------------------------|---
B-------13--12--13--12--12------12--12--13--12--12------12--12------|---
G---12----------------------12----------------------12----------12--|---
D-------------------------------------------------------------------|---
A-------------------------------------------------------------------|---
E-------------------------------------------------------------------|---
    pm                      pm          pm          pm          pm__                 

    G                                                                        
E-------------------15----------15--14--15--14--14--15--14--14--14--|---
B--/15--12--15--15------15--15--------------------------------------|---
G-------------------------------------------------------------------|---
D-------------------------------------------------------------------|---
A-------------------------------------------------------------------|---
E-------------------------------------------------------------------|---
__________________|     pm____|                                

    D/F#                                                                        
E-------14----------15----------15--14--15--14--14--15--14--14--15--|---
B---15------15--15------15--15--------------------------------------|---
G-------------------------------------------------------------------|---
D-------------------------------------------------------------------|---
A-------------------------------------------------------------------|---
E-------------------------------------------------------------------|---
    pm      pm____|     pm____|

    Em7                                                                        
E-------14----------15----------15--14--15--14--14--15--14--14--15---|--
B---15------15--15------15--15---------------------------------------|--
G--------------------------------------------------------------------|--
D--------------------------------------------------------------------|--
A--------------------------------------------------------------------|--
E--------------------------------------------------------------------|--
    pm      pm____|     pm____|                                          

    C9                                                                        
E---14--14--15--14--14--15--14--14--15--14--14--15--14--14--15--14/--|--
B--------------------------------------------------------------------|--
G--------------------------------------------------------------------|--
D--------------------------------------------------------------------|--
A--------------------------------------------------------------------|--
E--------------------------------------------------------------------|--


    As4      A         G/B     C9             C9
E---17~~~-|-(17)~~~-15-17-15-|-17-15-15~~~-|-(15)~~~\--------||
B---------|------------------|-------------|---------0h1-0h1-||
G---------|------------------|-------------|---------0h2-0h2-||
D---------|------------------|-------------|-----------------||
A---------|------------------|-------------|-----------------||
E---------|------------------|-------------|-----------------||


REPEAT CHORUS TWICE: End the song on a G and let it ring.





Comments


Popular Collective Soul tabs & chords
Energy Bass Tabs
Boast Tabs
December 4 Tabs
Goodmorning After All Tabs
Perfect To Stay Tabs
Persasion Of You Tabs
The World I Know 1 Tabs
Where The River Flows 4 Tabs
Adored Ukulele
Home Ukulele


Song lyrics



↑ Back to top | Tablatures and chords are parodies/interpretations of the original songs. You may use it for private study, scholarship, research or language learning purposes only
© 2014 AZChords.com Contact us | Privacy policy | DMCA | Add/correct tabs | Request tabs | Top 50 tabs