» » »

Collective Soul, December Tabs (ver.4)

Artists:  A B C D E F G H I J K L M N O P Q R S T U V W X Y Z # 

December Tabs (ver.4)

Collective Soul Tabs
Rating:
4/5 (4 votes)
December lessons Tabs too difficult? Try these video lessons and learn fast
                Collective Soul
December
2-21-04

I tabbed this out after seeing several others that were a little off, but i think
this should be abosl*tely correct.  I did not tab out second guitar riffs, but i
could so so if requested. This also sounds great acoustic like 
Collective Soul did it on their DVD.

Repeat this for verses as necessary


e|-----------3-----|-----------3-----|-----------3-----|-------------------
b|-----3---3---3---|-----3---3---3---|-----3---3---3---|-----3-------------
g|---0---0-------0-|---0---0-------0-|---0---0-------0-|--0---0---0---0----
d|-----------------|-----------------|-----------------|-------------------
a|-----------------|-----------------|-3---------------|-1--------1--2-----
e|-3---------------|-1---------------|-----------------|-------------------


Repeat this for chorus as necessary


e|---3--3--3--3--3|---3--3--3--3--3-|---3--3--3--3--3--|---3--3-----3--3--|
b|---3--3--3--3--3|---3--3--3--3--3-|---3--3--3--3--3--|---3--3-----3--3--|
g|---0--0--0--0--0|---0--0--0--0--0-|---0--0--0--0--0--|---0--0-----0--0--|
d|---0--0--0--0--0|---0--0--0--0--0-|---0--0--0--0--0--|---0--0-----0--0--|
a|---x--x--x--x--x|---x--x--x--x--x-|3--3--3--3--3--3--|1--1--1--2--2--2--|
e|-3-3--3--3--3--3|1--1--1--1--1--1-|------------------|------------------|


A bridge section in this song uses this palm mutue pattern below


palm mute this whole section...............................................|

e|------------------------|------------------------|------------------------
b|------------------------|------------------------|------------------------
g|------------------------|------------------------|------------------------
d|--0--0--0--0--0--0--0--0|--0--0--0--0--0--0--0--0|--0--0--0--0--0--0--0--0
a|--x--x--x--x--x--x--x--x|--x--x--x--x--x--x--x--x|--3--3--3--3--3--3--3--3
e|--3--3--3--3--3--3--3--3|--1--1--1--1--1--1--1--1|------------------------

e|------------------------|
b|------------------------|
g|-3-3-3-3-3-3-3-0--------|
d|------------------------|
a|------------------------|
e|------------------------|

e|-----------3-----|-----------3-----|-----------3-----|--------------------
b|-----3---3---3---|-----3---3---3---|-----3---3---3---|--------------------
g|---0---0-------0-|---0---0-------0-|---0---0-------0-|-3-3-3-3-3-3-3-0----
d|-----------------|-----------------|-----------------|--------------------
a|-----------------|-----------------|-3---------------|--------------------
e|-3---------------|-1---------------|-----------------|--------------------

Use Verse Pattern here:

Why drink the water
Contagious as you think I am
Just tilt my sun towards 
your domain.
Your cup runneth over again.

Use chorus pattern here:

Don't scream about
Don't think aloud
Turn your head now baby 
Just spit me out
Don't worry about
Don't speak of doubt
Turn your head now baby
Just spit me out


Use verse pattern here:

Why follow me to higher ground?
Lost as you swear I am.
Don't throw away your basic needs,
Ambiance and vanity.

Play bridge part here:



Play chorus pattern here:


December promise you gave unto me
December whispers of treachery
December clouds are now covering me
December songs no longer I sing


Play chours pattern here:


Don't scream about
Don't think aloud
Turn your head now baby 
Just spit me out
Don't worry about
Don't speak of doubt
Turn your head now baby
Just spit me out
            

comments powered by Disqus
↑ Back to top | Collective Soul Tabs for December. Lyrics for acoustic guitar and electric guitar. Tablatures and chords are parodies/interpretations of the original songs. You may use it for private study, scholarship, research or language learning purposes only