» » »

Collective Soul, All That I Know Tabs (ver.1)

Artists:  A B C D E F G H I J K L M N O P Q R S T U V W X Y Z # 

All That I Know Tabs (ver.1)

Collective Soul Tabs
Rating:
0/5 (0 votes)
All That I Know lessons Tabs too difficult? Try these video lessons and learn fast
                

Tuning: Standard


Intro/Verses/Outro

E ` ` ` ` ` ` ` ` ` ` ` ` ` ` ` ` ` ` B ` ` ` ` ` ` ` ` ` ` ` ` `
--------------------------------------------------------------------------|
--------------------------------------------4-------------4---------------|
--------------------------------------------4-------------4---------------|
----------------------------------------------4-4------------4-4----------|
--------------------------------------2-2-2---------2-2-2-----------------|
-0-0-12-0---0-12-0-0-0-12-0---0-12-0--------------------------------------|


Pre-chorus

C#m ` ` ` ` G#m ` ` ` C#m ` ` ` ` G#m ` ` ` F#
-----------------------------------------------------|
--5--5p4--------------5--5p4-------------------------|
---------6p4-----------------6p4--6/8-------3--------|
-------------6------------------------------4--------|
--------------------------------------------4--------|
--------------------------------------------2--------|


Chorus

` ` ` ` ` ` ` ` ` E ` ` ` ` ` ` ` ` ` ` ` B
You're all that I know when the sun goes down

` ` ` ` ` ` ` ` ` E ` ` ` ` ` ` ` ` ` ` ` B
You're all that I know when the sun comes rising

` ` ` ` ` ` ` ` ` E
Like the devil in me

` ` ` ` ` ` ` B
When tomorrow wakes

` ` ` ` ` ` ` F# ` ` F#add4 ` ` F#
It's sure to show

Solo

---------------------------------------------------------------------------|
--16---14p12--7---------7--11h12p11-9------9-------------------------------|
---------------------------------------11----8----11-----------------------|
-----------------------------------------------------9----11---------------|
-------------------------------------------------------------9-------------|
---------------------------------------------------------------------------|

-----------------------------------------------------16-14~------21-19~----|
------------------------------------12h14h16p14---12-----------------------|
------------13h15h16p15---11h13h15----------------------------16-----------|
--13h15h16-----------------------------------------------------------------|
---------------------------------------------------------------------------|
---------------------------------------------------------------------------|

---------------------------------------------------|
--17-17p16--14p12-14/16----17-17p16--14p12-14/16---|
---------------------------------------------------|
---------------------------------------------------|
---------------------------------------------------|
---------------------------------------------------|
            
Submit corrections

comments powered by Disqus
↑ Back to top | Collective Soul Tabs for All That I Know. Lyrics for acoustic guitar and electric guitar. Tablatures and chords are parodies/interpretations of the original songs. You may use it for private study, scholarship, research or language learning purposes only