>
 >
All That I Know

All That I Know Bass Tabs

Collective Soul - All That I Know chords, tabs, tablatures, lyrics

Guitar lessons | Add/correct | Request | Top 50 tabs Artists:  A B C D E F G H I J K L M N O P Q R S T U V W X Y Z 0-9

All That I Know Bass Tabs – Collective Soul

CD, Sheet music, Poster

Do you like All That I Know? Share with your friends now
Bass TabsTabsTabs v2Tabs v3
-----------------------------------------------------------------------------
	           
                    Collective Soul - All That I Know (BASS)
                       
-----------------------------------------------------------------------------

Tuning: Half Step Down

=============================================================================

Bass



F#||-------|-------|-------|-------|-------|-------|-------|-------|-------|
C#||-------|-------|-------|-------|-------|-------|-------|-------|-------|
G#||-------|-------|-------|-------|-------|-------|-------|-------|-------|
D#||-------|-------|-------|-------|-------|-------|-------|-------|-------|


          E  E  E  E  E  E  Q       E  E  E  E  E  E  Q     
-------|-------------------------|-------------------------|
-------|-------------------------|-------------------------|
-------|-------------------------|-------------------------|
-------|--1--1-----1-----1-------|--1--1-----1-----1-------|


  E  E  E  Q    E  E  E     E  E  E  Q    E  E  E     E  E  E  E  E  E  E  E   
-------------------------|-------------------------|--------------------------|
-------------------------|-------------------------|--------------------------|
--3--3--3--3----3--3-----|--3--3--3--3----3--3-----|--------------------------|
-------------------------|-------------------------|--1--1-----1-----1-----1--|


  E  E  E  E  E  E  E  E     E  E  E  Q    E  E  E     E  E  E  Q    E  E  E   
--------------------------|-------------------------|-------------------------|
--------------------------|-------------------------|-------------------------|
--------------------------|--3--3--3--3----3--3-----|--3--3--3--3----3--3-----|
-----1-----1-----1-----1--|-------------------------|-------------------------|


  E  E  E  E  E  E  E  E     E  E  E  E  E  E  E  E     E  E  E  Q    E  E  E   
--------------------------|--------------------------|-------------------------|
--------------------------|--------------------------|-------------------------|
--------------------------|--------------------------|--3--3--3--3----3--3-----|
--1--1-----1-----1-----1--|-----1-----1-----1-----1--|-------------------------|


  E  E  E  Q    E  Q       Q.     Q    E  Q       Q.     Q.     Q     
------------------------|----------------------|---------------------|
------------------------|-----------------5----|---------------------|
--3--3--3--3----3--0----|--5------5----5-------|---------------------|
------------------------|----------------------|--5------7------8----|


  Q.     E  Q    Q       Q.     Q.     Q       Q    E  E  E  E  E  E   
----------------------|---------------------|-------------------------|
-----------------5----|---------------------|-------------5-----5-----|
--5------8--8---------|--0------2------3----|-------------------------|
----------------------|---------------------|--3----3--3-----3-----3--|


  E  E  E  E  E  E  E  E     E  E  E  E  E  E  E  E   
--------------------------|--------------------------|
--5-----5-----5-----5-----|--------------------------|
--------------------------|--------------------------|
-----3-----3-----3-----3--|--1--1--1--1--1--1--1--1--|


  E  E  E  E  E  E  E  E     E  E  E  E  E  E  E  E   
--------------5-----5-----|--------------------------|
--------------------------|--------------------------|
--3--3--3--3-----3-----3--|--------------------------|
--------------------------|--1--1--1--1--1--1--1--1--|


  E  E  E  E  E  E  E  E     E  E  E  E  E  E  E  E   
--------------------------|--------------------------|
--------------------------|--------------------------|
--3--3--3--3--3--3--------|--------------------------|
--------------------5--0--|--1--1--1--1--1--1--1--1--|


  E  E  E  E  E  E  E  E       E   E   E   E   E   E   E   E   
---------------------------|----------------------------------|
---------------------------|----------------------------------|
--3--3--3--3--3--3--3--3/--|--10--10--10--10--10--10--10--10--|
---------------------------|----------------------------------|


  E  E  E  E  E  E  E  E     E  E  E  E  E  E  Q       E  E  E  E  E  E  Q     
--------------------------|-------------------------|-------------------------|
-----5-----5--------------|-------------------------|-------------------------|
--------------------------|-------------------------|-------------------------|
--3-----3--3--3--3--3--5--|--1--1-----1-----1-------|--1--1-----1-----1-------|


  E  E  E  Q    E  E  E     E  E  E  Q    E  E  E     E  E  E  E  E  E  Q     
-------------------------|-------------------------|-------------------------|
-------------------------|-------------------------|-------------------------|
--3--3--3--3----3--3-----|--3--3--3--3----3--3-----|-------------------------|
-------------------------|-------------------------|--1--1-----1-----1-------|


  E  E  E  E  E  E  Q       E  E  E  Q    E  E  E     E  E  E  Q    E  E  E   
-------------------------|-------------------------|-------------------------|
-------------------------|-------------------------|-------------------------|
-------------------------|--3--3--3--3----3--3-----|--3--3--3--3----3--3-----|
--1--1-----1-----1-------|-------------------------|-------------------------|


  E  E  E  E  E  E  E  E     E  E  E  E  E  E  E  E     E  E  E  Q    E  E  E   
--------------------------|--------------------------|-------------------------|
--------------------------|--------------------------|-------------------------|
--------------------------|--------------------------|--3--3--3--3----3--3-----|
--1--1-----1-----1-----1--|-----1-----1-----1-----1--|-------------------------|


  E  E  E  Q    E  E  E     E  E  E  E  E  E  E  E     E  E  E  E  E  E  E  E   
-------------------------|--------------------------|--------------------------|
-------------------------|--------------------------|--------------------------|
--3--3--3--3----3--3-----|--------------------------|--------------------------|
-------------------------|--1--1-----1-----1-----1--|-----1-----1-----1-----1--|


  E  E  E  Q    E  E  E     E  E  E  Q    E  Q       Q.     Q    E  Q     
-------------------------|------------------------|----------------------|
-------------------------|------------------------|----------------------|
--3--3--3--3----3--3-----|--3--3--3--3----3--0----|--5------5----5-------|
-------------------------|------------------------|-----------------3----|


  Q.     Q    E  Q       Q.     E  Q    Q       Q.     Q.     Q     
----------------------|----------------------|---------------------|
----------------------|-----------------5----|---------------------|
----------------------|--5------8--8---------|--0------2------3----|
--5------7----7--8----|----------------------|---------------------|


  Q    E  E  E  E  E  E     E  E  E  E  E  E  E  E     E  E  E  E  E  E  E  E   
-------------------------|--------------------------|--------------------------|
-------------5-----5-----|--5-----5-----5-----5-----|--------------------------|
-------------------------|--------------------------|--------------------------|
--3----3--3-----3-----3--|-----3-----3-----3-----3--|--1--1--1--1--1--1--1--1--|


  E  E  E  E  E  E  E  E     E  E  E  E  E  E  E  E   
--------------5-----5-----|--------------------------|
--------------------------|--------------------------|
--3--3--3--3-----3-----3--|--------------------------|
--------------------------|--1--1--1--1--1--1--1--1--|


  E  E  E  E  E  E  E  E     E  E  E  E  E  E  E  E   
--------------------------|--------------------------|
--------------------------|--------------------------|
--3--3--3--3--3--3--------|--------------------------|
--------------------5--0--|--1--1--1--1--1--1--1--1--|


  E  E  E  E  E  E  E  E       E   E   E   E   E   E   Q      
---------------------------|------12----------12------12\----|
---------------------------|---------------------------------|
--3--3--3--3--3--3--3--3/--|--10------10--10------10--10\----|
---------------------------|---------------------------------|


  E  E  E  E  E  E  E  E     E  E  E  E  E  E  E  E   
--------------------------|--------------------------|
-----5-----5--------------|--------------------------|
--------------------------|--------------------------|
--3-----3--3--3--3--3--5--|--1--1--1--1--1--1--1--1--|


  E  E  E  E  E  E  E  E     E  E  E  E  E  E  E  E   
--------------------------|--------------------------|
--------------------------|--------------------------|
--3--3--3--3--3--3--3--3--|--------------------------|
--------------------------|--1--1--1--1--1--1--1--1--|


  E  E  E  E  E  E  E  E     E  E  E  E  E  E  E  E   
--------------------------|--------------------------|
--------------------------|--------------------------|
--3--3--3--3--3--3--------|--------------------------|
--------------------5--0--|--1--1--1--1--1--1--1--1--|


  E  E  E  E  E  E  E  E       E   E   E   E   E   E   E   E   
---------------------------|----------------------------------|
---------------------------|----------------------------------|
--3--3--3--3--3--3--3--3/--|--10--10--10--10--10--10--10--10--|
---------------------------|----------------------------------|


   E   E   E   E   E   E   Q        E  E  E  E  E  E  Q     
---------------------------------|-------------------------|
---------------------------------|-------------------------|
--10--10--10--10--10--10--10\----|-------------------------|
---------------------------------|--1--1-----1-----1-------|


  E  E  E  E  E  E  Q       E  E  E  Q    E  E  E     E  E  E  Q    E  E  E   
-------------------------|-------------------------|-----5-------------------|
-------------------------|-------------------------|-------------------------|
-------------------------|--3--3--3--3----3--3-----|--3-----3--3----3--3-----|
--1--1-----1-----1-------|-------------------------|-------------------------|


  E  E  E  E  E  E  Q       E  E  E  E  E  E  Q       E  E  E  Q    E  E  E   
-------------------------|-------------------------|-------------------------|
-------------------------|-------------------------|-------------------------|
-------------------------|-------------------------|--3--3--3--3----3--3-----|
--1--1-----1-----1-------|--1--1-----1-----1-------|-------------------------|


  E  E  E  Q    E  Q       Q.     Q    E  Q       Q.     Q    E  Q     
------------------------|----------------------|----------------------|
------------------------|----------------------|----------------------|
--3--3--3--3----3--0----|--5------5----5-------|----------------------|
------------------------|-----------------3----|--5------7----7--8----|


  Q.     Q.     Q       Q.     Q.     Q       Q    E  E  E  E  E  E   
---------------------|---------------------|-------------------------|
----------------5----|---------------------|-------------------------|
--5------8-----------|--0------2------3----|-------------------------|
---------------------|---------------------|--3----3--3--3--3--3--3--|


  E  E  E  E  E  E  E  E     E  E  E  E  E  E  E  E   
--------------------------|--------------------------|
--------------------------|--------------------------|
--------------------------|--------------------------|
--3--3--3--3--3--3--3--3--|--1--1--1--1--1--1--1--1--|


  E  E  E  E  E  E  E  E     E  E  E  E  E  E  E  E   
--------------5-----5-----|--------------------------|
--------------------------|--------------------------|
--3--3--3--3-----3-----3--|--------------------------|
--------------------------|--1--1--1--1--1--1--1--1--|


  E  E  E  E  E  E  E  E     E  E  E  E  E  E  E  E   
--------------------------|--------------------------|
--------------------------|--------------------------|
--3--3--3--3--3--3--------|--------------------------|
--------------------5--0--|--1--1--1--1--1--1--1--1--|


  E  E  E  E  E  E  E  E       E   E   E   E   E   E   Q      
---------------------------|---------------------------------|
---------------------------|---------------------------------|
--3--3--3--3--3--3--3--3/--|--10--10--10--10--10--10--10\----|
---------------------------|---------------------------------|


  E  E  E  E  E  E  E  E     Q    E  E  E  E  E  E     Q    E  E  E  E  E  E   
--------------------------|-------------------------|-------------------------|
--------------------------|-------------------------|-------------------------|
--------------------------|-------------------------|-------3--3--3--3--3--3--|
--3--3--3--3--3--3--3--0--|-------1--1--1--1--1--1--|-------------------------|


  E  E  E  E  E  E  E  E     E  E  E  E  E  E  E  E   
--------------------------|--------------------------|
--------------------------|--------------------------|
--------------------------|--3--3--3--3--3--3--------|
--1--1--1--1--1--1--1--1--|--------------------5--0--|


  E  E  E  E  E  E  E  E     E  E  E  E  E  E  E  E    
--------------------------|---------------------------|
--------------------------|---------------------------|
--------------------------|--3--3--3--3--3--3--3--3/--|
--1--1--1--1--1--1--1--1--|---------------------------|


   E   E   E   E   E   E   E   E      E   E   E   E   E   E   Q              
----------------------------------|---------------------------------|-------|
----------------------------------|---------------------------------|-------|
--10--10--10--10--10--10--10--10--|--10--10--10--10--10--10--10\----|-------|
----------------------------------|---------------------------------|-------|


-------|-------|-------|-------|-------|-------|-------|-------|-------|-------|
-------|-------|-------|-------|-------|-------|-------|-------|-------|-------|
-------|-------|-------|-------|-------|-------|-------|-------|-------|-------|
-------|-------|-------|-------|-------|-------|-------|-------|-------|-------|


-------|-------|-------|-------|-------||
-------|-------|-------|-------|-------||
-------|-------|-------|-------|-------||
-------|-------|-------|-------|-------||




Duration Legend
---------------
W - whole
H - half
Q - quarter
E - 8th
S - 16th
T - 32nd
X - 64th
. - note dotted
|-n-|  - n-tuplets


Tablature Legend
----------------
L - tied note
x - dead note
g - grace note
(n) - ghost note
> - accentuded note
NH - natural harmonic
AH - artificial harmonic
TH - tapped harmonic
SH - semi harmonic
PH - pitch harmonic
h - hammer on
p - pull off
b - bend
br - bendRelease
pb - preBend
pbr - preBendRelease
brb - bendReleaseBend
\n/ - tremolo bar dip
\n - tremolo bar dive
-/n - tremolo bar Release up
/n\ - tremolo bar inverted dip
/n - tremolo bar return
-\n - tremolo bar Release down
S - shift slide
s - legato slide
/ -  slide into from below or out of upwards
\ -  slide into from above or out of downwards
~ - vibrato
W - wide vibrato
tr - trill
TP - tremolo picking
T - tapping
S - slap
P - pop
< - fade in
^ - brush up
v - brush down





Comments


Popular Collective Soul tabs & chords
Energy Bass Tabs
Simple Bass Tabs
Bearing Witness 2 Chords
Satellite Chords
She Does Chords
Better Now 1 Tabs
Heaven's Already Here Tabs
Persasion Of You Tabs
Precious Declaration Tabs
The World I Know 2 Tabs


Song lyrics



↑ Back to top | Tablatures and chords are parodies/interpretations of the original songs. You may use it for private study, scholarship, research or language learning purposes only
© 2014 AZChords.com Contact us | Privacy policy | DMCA | Add/correct tabs | Request tabs | Top 50 tabs