» » »

All That I Know Tabs (ver.2)

Artists:  A B C D E F G H I J K L M N O P Q R S T U V W X Y Z # 

All That I Know Tabs (ver.2)

Collective Soul
Rating:
0/5 (0 votes)

Hard to play? Try these video lessons and learn fast.
                Collective Soul - All that I know.

Pretty simple song with a cool, funky solo.

I got everything minus the very last part of the solo which is too much
for my brain to figure out at the moment. If anybody knows what It is feel free to tell me.

Standard tuning.

----------------------------------------------------------------------------|
----------------------------------------------------------------------------|
---------------------------------------8------------8-----------------------|
---------------------------------------9------------9-----------------------|
-----7-----7-------7-----7---------------9--9----------9--9-----------------|
-0-0--0--0--0--0-0--0--0--0-----7-7-7---------7-7-7-------------------------|
Verse


----------------------------------------------------------------------------|
--5--5p4---------------5-5p4------------------2-2-2-2-2-2-2-2---------------|
---------6p4------------------6p4--6/8--------3-3-3-3-3-3-3-3---------------|
--------------6-------------------------------4-4-4-4-4-4-4-4---------------|
----------------------------------------------4-4-4-4-4-4-4-4---------------|
----------------------------------------------2-2-2-2-2-2-2-2---------------|
Bridge, interlude, thing.


-------4---------4----------4------------------|
-0-----4----0----4-----0----4-----2------------|
-1-----4x8--1----4x8---1----4x8---3------------|
-2-x8--4----2x8--4-----2x8--4-----4x8----------|
-2-----2----2----2-----2----2-----4------------|
-0----------0----------0----------2------------|
Chorus


---------------------------------------------------------|
--16~-14~------------11h12p11/9--7/9---------------------|
----------16-11~--11-----------------8/11----------------|
------------------------------------------9/11-----------|
-----------------------------------------------9---------|
---------------------------------------------------------|

------------------------------------------14/16-14-----/21-19--------|
-----9h11h12-11------11-12h14h16-14----------------------------------|
----9--------------13-----------------11-----------16----------------|
---9-------------14--------------------------------------------------|
-11------------------------------------------------------------------|
---------------------------------------------------------------------|

-----------------------------------11h12p11---------------------------------|
---------------------------------11--------14p12----------------------------|
--13-13p11-11------------------11----------------13---13-13/16-15/18-15-----|
--------------14-14-13-13----13---------------------------------------------|
----------------------------------------------------------------------------|
----------------------------------------------------------------------------|
Solo!
            
Hard to play? Try these video lessons and learn fast. | Correct




comments powered by Disqus
↑ Back to top | Tablatures and chords are parodies/interpretations of the original songs. You may use it for private study, scholarship, research or language learning purposes only