» » »

Circa Survive, In The Morning And Amazing.. Tabs (ver.2)

Artists:  A B C D E F G H I J K L M N O P Q R S T U V W X Y Z # 

In The Morning And Amazing.. Tabs (ver.2)

Circa Survive Tabs
 Rating:
4/5 (4 votes)
In The Morning And Amazing.. lessons Tabs too difficult? Try these video lessons and learn fast
1
                (Intro)
			     IN THE MORNING AND AMAZING - Circa Survive

Tuning:Eb,Bb,Gb,Db,Ab,Eb

eb|-------------------12-----------------15b17r15-14--------------------------|
Bb|-------------12-15----15-------12-----------------15----15----15----15-----|
Gb|-------11-12-------------14b16----r14----------------16----16----16----16--|
Db|---------------------------------------------------------------------------|
Ab|-12-14---------------------------------------------------------------------|
Eb|---------------------------------------------------------------------------|

eb|-------------------12-----------------15b17r15-14--------------------------|
Bb|-------------12-15----15-------12-----------------15----15----15----15-----|
Gb|-------11-12-------------14b16----r14----------------16----16----16----16--|
Db|---------------------------------------------------------------------------|
Ab|-12-14---------------------------------------------------------------------|
Eb|---------------------------------------------------------------------------|

eb|-------------------12------------------------------------------------------|
Bb|-------------12-15----15-------12-----12----------------12-----------------|
Gb|-------11-12-------------14b16----r14----14----14----14---14---14----14----|
Db|--------------------------------------------16----16--------16----16-------|
Ab|-12-14---------------------------------------------------------------------|
Eb|---------------------------------------------------------------------------|

eb|-------------------12-----------------15b17r15-14--------------------------|
Bb|-------------12-15----15-------12-----------------------15-----------------|
Gb|-------11-12-------------14b16----r14--------------------------------------|
Db|---------------------------------------------------------------------------|
Ab|-12-14---------------------------------------------------------------------|
Eb|---------------------------------------------------------------------------|



| /  slide up
| \  slide down
| h  hammer-on
| p  pull-off
| ~  vibrato
| +  harmonic
| x  Mute note
            
Submit corrections

comments powered by Disqus
↑ Back to top | Circa Survive Tabs for In The Morning And Amazing... Lyrics for acoustic guitar and electric guitar. 1 Tablatures and chords are parodies/interpretations of the original songs. You may use it for private study, scholarship, research or language learning purposes only